  0
SECTION
  2
HEADER
  9
$ACADVER
  1
AC1021
  9
$ACADMAINTVER
 70
    25
  9
$DWGCODEPAGE
  3
ANSI_1252
  9
$INSBASE
 10
0.0
 20
0.0
 30
0.0
  9
$EXTMIN
 10
-113.5092345452795
 20
-117.6932331777742
 30
0.0
  9
$EXTMAX
 10
66.49076545472047
 20
137.3067668222257
 30
0.0
  9
$LIMMIN
 10
-128.5092345452795
 20
-138.6932331777743
  9
$LIMMAX
 10
81.49076545472047
 20
158.3067668222257
  9
$ORTHOMODE
 70
     0
  9
$REGENMODE
 70
     1
  9
$FILLMODE
 70
     1
  9
$QTEXTMODE
 70
     0
  9
$MIRRTEXT
 70
     0
  9
$LTSCALE
 40
1.0
  9
$ATTMODE
 70
     1
  9
$TEXTSIZE
 40
7.0
  9
$TRACEWID
 40
1.0
  9
$TEXTSTYLE
  7
Standard
  9
$CLAYER
  8
0
  9
$CELTYPE
  6
ByLayer
  9
$CECOLOR
 62
     7
  9
$CELTSCALE
 40
1.0
  9
$DISPSILH
 70
     0
  9
$DIMSCALE
 40
1.0
  9
$DIMASZ
 40
3.0
  9
$DIMEXO
 40
1.0
  9
$DIMDLI
 40
7.5
  9
$DIMRND
 40
0.01
  9
$DIMDLE
 40
0.0
  9
$DIMEXE
 40
2.0
  9
$DIMTP
 40
0.0
  9
$DIMTM
 40
0.0
  9
$DIMTXT
 40
3.0
  9
$DIMCEN
 40
0.09
  9
$DIMTSZ
 40
0.0
  9
$DIMTOL
 70
     0
  9
$DIMLIM
 70
     0
  9
$DIMTIH
 70
     1
  9
$DIMTOH
 70
     1
  9
$DIMSE1
 70
     0
  9
$DIMSE2
 70
     0
  9
$DIMTAD
 70
     1
  9
$DIMZIN
 70
     3
  9
$DIMBLK
  1

  9
$DIMASO
 70
     1
  9
$DIMSHO
 70
     1
  9
$DIMPOST
  1
mm
  9
$DIMAPOST
  1

  9
$DIMALT
 70
     0
  9
$DIMALTD
 70
     2
  9
$DIMALTF
 40
1.0
  9
$DIMLFAC
 40
1.0
  9
$DIMTOFL
 70
     1
  9
$DIMTVP
 40
0.0
  9
$DIMTIX
 70
     0
  9
$DIMSOXD
 70
     0
  9
$DIMSAH
 70
     0
  9
$DIMBLK1
  1

  9
$DIMBLK2
  1

  9
$DIMSTYLE
  2
Standard
  9
$DIMCLRD
 70
     7
  9
$DIMCLRE
 70
     7
  9
$DIMCLRT
 70
     7
  9
$DIMTFAC
 40
1.0
  9
$DIMGAP
 40
2.0
  9
$DIMJUST
 70
     0
  9
$DIMSD1
 70
     0
  9
$DIMSD2
 70
     0
  9
$DIMTOLJ
 70
     1
  9
$DIMTZIN
 70
     0
  9
$DIMALTZ
 70
     3
  9
$DIMALTTZ
 70
     0
  9
$DIMUPT
 70
     0
  9
$DIMDEC
 70
     2
  9
$DIMTDEC
 70
     2
  9
$DIMALTU
 70
     2
  9
$DIMALTTD
 70
     2
  9
$DIMTXSTY
  7
_TCW_TXTSTY_1
  9
$DIMAUNIT
 70
     0
  9
$DIMADEC
 70
     2
  9
$DIMALTRND
 40
0.01
  9
$DIMAZIN
 70
     0
  9
$DIMDSEP
 70
    46
  9
$DIMATFIT
 70
     3
  9
$DIMFRAC
 70
     2
  9
$DIMLDRBLK
  1

  9
$DIMLUNIT
 70
     2
  9
$DIMLWD
 70
    -2
  9
$DIMLWE
 70
    -2
  9
$DIMTMOVE
 70
     0
  9
$DIMFXL
 40
1.0
  9
$DIMFXLON
 70
     0
  9
$DIMJOGANG
 40
0.7853981633974483
  9
$DIMTFILL
 70
     0
  9
$DIMTFILLCLR
 70
     0
  9
$DIMARCSYM
 70
     0
  9
$DIMLTYPE
  6

  9
$DIMLTEX1
  6

  9
$DIMLTEX2
  6

  9
$LUNITS
 70
     2
  9
$LUPREC
 70
     2
  9
$SKETCHINC
 40
1.0
  9
$FILLETRAD
 40
4.0
  9
$AUNITS
 70
     0
  9
$AUPREC
 70
     2
  9
$MENU
  1
.
  9
$ELEVATION
 40
0.0
  9
$PELEVATION
 40
0.0
  9
$THICKNESS
 40
0.0
  9
$LIMCHECK
 70
     0
  9
$CHAMFERA
 40
0.5
  9
$CHAMFERB
 40
0.5
  9
$CHAMFERC
 40
1.0
  9
$CHAMFERD
 40
0.0
  9
$SKPOLY
 70
     0
  9
$TDCREATE
 40
2456859.494811898
  9
$TDUCREATE
 40
2456859.411478565
  9
$TDUPDATE
 40
2456859.49481191
  9
$TDUUPDATE
 40
2456859.411478576
  9
$TDINDWG
 40
0.0
  9
$TDUSRTIMER
 40
0.0
  9
$USRTIMER
 70
     1
  9
$ANGBASE
 50
0.0
  9
$ANGDIR
 70
     0
  9
$PDMODE
 70
     0
  9
$PDSIZE
 40
0.0
  9
$PLINEWID
 40
0.0
  9
$SPLFRAME
 70
     0
  9
$SPLINETYPE
 70
     5
  9
$SPLINESEGS
 70
    20
  9
$HANDSEED
  5
1E9
  9
$SURFTAB1
 70
     6
  9
$SURFTAB2
 70
     6
  9
$SURFTYPE
 70
     6
  9
$SURFU
 70
     6
  9
$SURFV
 70
     6
  9
$UCSBASE
  2

  9
$UCSNAME
  2

  9
$UCSORG
 10
0.0
 20
0.0
 30
0.0
  9
$UCSXDIR
 10
1.0
 20
0.0
 30
0.0
  9
$UCSYDIR
 10
0.0
 20
1.0
 30
0.0
  9
$UCSORTHOREF
  2

  9
$UCSORTHOVIEW
 70
     0
  9
$UCSORGTOP
 10
0.0
 20
0.0
 30
0.0
  9
$UCSORGBOTTOM
 10
0.0
 20
0.0
 30
0.0
  9
$UCSORGLEFT
 10
0.0
 20
0.0
 30
0.0
  9
$UCSORGRIGHT
 10
0.0
 20
0.0
 30
0.0
  9
$UCSORGFRONT
 10
0.0
 20
0.0
 30
0.0
  9
$UCSORGBACK
 10
0.0
 20
0.0
 30
0.0
  9
$PUCSBASE
  2

  9
$PUCSNAME
  2

  9
$PUCSORG
 10
0.0
 20
0.0
 30
0.0
  9
$PUCSXDIR
 10
1.0
 20
0.0
 30
0.0
  9
$PUCSYDIR
 10
0.0
 20
1.0
 30
0.0
  9
$PUCSORTHOREF
  2

  9
$PUCSORTHOVIEW
 70
     0
  9
$PUCSORGTOP
 10
0.0
 20
0.0
 30
0.0
  9
$PUCSORGBOTTOM
 10
0.0
 20
0.0
 30
0.0
  9
$PUCSORGLEFT
 10
0.0
 20
0.0
 30
0.0
  9
$PUCSORGRIGHT
 10
0.0
 20
0.0
 30
0.0
  9
$PUCSORGFRONT
 10
0.0
 20
0.0
 30
0.0
  9
$PUCSORGBACK
 10
0.0
 20
0.0
 30
0.0
  9
$USERI1
 70
     0
  9
$USERI2
 70
     0
  9
$USERI3
 70
     0
  9
$USERI4
 70
     0
  9
$USERI5
 70
     0
  9
$USERR1
 40
0.0
  9
$USERR2
 40
0.0
  9
$USERR3
 40
0.0
  9
$USERR4
 40
0.0
  9
$USERR5
 40
0.0
  9
$WORLDVIEW
 70
     1
  9
$SHADEDGE
 70
     3
  9
$SHADEDIF
 70
    70
  9
$TILEMODE
 70
     1
  9
$MAXACTVP
 70
    64
  9
$PINSBASE
 10
0.0
 20
0.0
 30
0.0
  9
$PLIMCHECK
 70
     0
  9
$PEXTMIN
 10
0.0
 20
0.0
 30
0.0
  9
$PEXTMAX
 10
182.0
 20
237.0
 30
0.0
  9
$PLIMMIN
 10
0.0
 20
0.0
  9
$PLIMMAX
 10
182.0
 20
237.0
  9
$UNITMODE
 70
     0
  9
$VISRETAIN
 70
     1
  9
$PLINEGEN
 70
     0
  9
$PSLTSCALE
 70
     1
  9
$TREEDEPTH
 70
  3020
  9
$CMLSTYLE
  2
Standard
  9
$CMLJUST
 70
     0
  9
$CMLSCALE
 40
1.0
  9
$PROXYGRAPHICS
 70
     1
  9
$MEASUREMENT
 70
     1
  9
$CELWEIGHT
370
    -1
  9
$ENDCAPS
280
     0
  9
$JOINSTYLE
280
     0
  9
$LWDISPLAY
290
     0
  9
$INSUNITS
 70
     1
  9
$HYPERLINKBASE
  1

  9
$STYLESHEET
  1

  9
$XEDIT
290
     1
  9
$CEPSNTYPE
380
     0
  9
$PSTYLEMODE
290
     1
  9
$FINGERPRINTGUID
  2
{C1E829E4-7793-4E19-A4BF-20BC00C37082}
  9
$VERSIONGUID
  2
{FAEB1C32-E019-11D5-929B-00C0DF256EC4}
  9
$EXTNAMES
290
     1
  9
$PSVPSCALE
 40
0.0
  9
$OLESTARTUP
290
     0
  9
$SORTENTS
280
   127
  9
$INDEXCTL
280
     0
  9
$HIDETEXT
280
     1
  9
$XCLIPFRAME
290
     0
  9
$HALOGAP
280
     0
  9
$OBSCOLOR
 70
   257
  9
$OBSLTYPE
280
     0
  9
$INTERSECTIONDISPLAY
280
     0
  9
$INTERSECTIONCOLOR
 70
   257
  9
$DIMASSOC
280
     2
  9
$PROJECTNAME
  1

  9
$CAMERADISPLAY
290
     0
  9
$LENSLENGTH
 40
50.0
  9
$CAMERAHEIGHT
 40
0.0
  9
$STEPSPERSEC
 40
2.0
  9
$STEPSIZE
 40
6.0
  9
$3DDWFPREC
 40
2.0
  9
$PSOLWIDTH
 40
0.25
  9
$PSOLHEIGHT
 40
4.0
  9
$LOFTANG1
 40
1.570796326794897
  9
$LOFTANG2
 40
1.570796326794897
  9
$LOFTMAG1
 40
0.0
  9
$LOFTMAG2
 40
0.0
  9
$LOFTPARAM
 70
     7
  9
$LOFTNORMALS
280
     1
  9
$LATITUDE
 40
37.795
  9
$LONGITUDE
 40
-122.394
  9
$NORTHDIRECTION
 40
0.0
  9
$TIMEZONE
 70
 -8000
  9
$LIGHTGLYPHDISPLAY
280
     1
  9
$TILEMODELIGHTSYNCH
280
     1
  9
$SOLIDHIST
280
     1
  9
$SHOWHIST
280
     1
  9
$DWFFRAME
280
     2
  9
$DGNFRAME
280
     2
  9
$REALWORLDSCALE
290
     1
  9
$INTERFERECOLOR
 62
   256
  9
$CSHADOW
280
     0
  9
$SHADOWPLANELOCATION
 40
0.0
  0
ENDSEC
  0
SECTION
  2
CLASSES
  0
CLASS
  1
ACDBDICTIONARYWDFLT
  2
AcDbDictionaryWithDefault
  3
ObjectDBX Classes
 90
        0
 91
        4
280
     0
281
     0
  0
CLASS
  1
VISUALSTYLE
  2
AcDbVisualStyle
  3
ObjectDBX Classes
 90
     4095
 91
        4
280
     0
281
     0
  0
CLASS
  1
SCALE
  2
AcDbScale
  3
ObjectDBX Classes
 90
        0
 91
        4
280
     0
281
     0
  0
CLASS
  1
TABLESTYLE
  2
AcDbTableStyle
  3
ObjectDBX Classes
 90
     4095
 91
        3
280
     0
281
     0
  0
CLASS
  1
TCOPTIONALDATA
  2
TcOptionalData
  3
ExTcadCustObjs|Description: TurboCAD extension data object
 90
        0
 91
        3
280
     0
281
     0
  0
ENDSEC
  0
SECTION
  2
TABLES
  0
TABLE
  2
VPORT
  5
8
330
0
100
AcDbSymbolTable
 70
     1
  0
VPORT
  5
29
330
8
100
AcDbSymbolTableRecord
100
AcDbViewportTableRecord
  2
*Active
 70
     0
 10
0.0
 20
0.0
 11
1.0
 21
1.0
 12
0.0
 22
0.0
 13
0.0
 23
0.0
 14
5.0
 24
5.0
 15
5.0
 25
5.0
 16
0.0
 26
0.0
 36
1.0
 17
-28.87199624894344
 27
61.04874559700731
 37
0.0
 40
70.19348400854199
 41
1.61727078891258
 42
50.0
 43
0.0
 44
0.0
 50
0.0
 51
0.0
 71
     0
 72
   100
 73
     1
 74
     3
 75
     0
 76
     0
 77
     0
 78
     0
281
     0
 65
     1
110
0.0
120
0.0
130
0.0
111
1.0
121
0.0
131
0.0
112
0.0
122
1.0
132
0.0
 79
     0
146
0.0
 60
     3
 61
     5
292
     1
282
     1
141
0.0
142
0.0
 63
   256
  0
ENDTAB
  0
TABLE
  2
LTYPE
  5
5
330
0
100
AcDbSymbolTable
 70
    13
  0
LTYPE
  5
14
330
5
100
AcDbSymbolTableRecord
100
AcDbLinetypeTableRecord
  2
ByBlock
 70
     0
  3

 72
    65
 73
     0
 40
0.0
  0
LTYPE
  5
15
330
5
100
AcDbSymbolTableRecord
100
AcDbLinetypeTableRecord
  2
ByLayer
 70
     0
  3

 72
    65
 73
     0
 40
0.0
  0
LTYPE
  5
16
330
5
100
AcDbSymbolTableRecord
100
AcDbLinetypeTableRecord
  2
Continuous
 70
     0
  3
Solid line
 72
    65
 73
     0
 40
0.0
  0
LTYPE
  5
5E
330
5
100
AcDbSymbolTableRecord
100
AcDbLinetypeTableRecord
  2
Durchgehend
 70
     0
  3
Durchgehend
 72
    65
 73
     0
 40
0.0
  0
LTYPE
  5
5F
330
5
100
AcDbSymbolTableRecord
100
AcDbLinetypeTableRecord
  2
Rand
 70
     0
  3
Rand
 72
    65
 73
     6
 40
1.75
 49
0.5
 74
     0
 49
-0.25
 74
     0
 49
0.5
 74
     0
 49
-0.25
 74
     0
 49
0.0
 74
     0
 49
-0.25
 74
     0
  0
LTYPE
  5
60
330
5
100
AcDbSymbolTableRecord
100
AcDbLinetypeTableRecord
  2
Mitte
 70
     0
  3
Mitte
 72
    65
 73
     4
 40
2.0
 49
1.25
 74
     0
 49
-0.25
 74
     0
 49
0.25
 74
     0
 49
-0.25
 74
     0
  0
LTYPE
  5
61
330
5
100
AcDbSymbolTableRecord
100
AcDbLinetypeTableRecord
  2
Strichpunkt
 70
     0
  3
Strichpunkt
 72
    65
 73
     4
 40
1.0
 49
0.5
 74
     0
 49
-0.25
 74
     0
 49
0.0
 74
     0
 49
-0.25
 74
     0
  0
LTYPE
  5
62
330
5
100
AcDbSymbolTableRecord
100
AcDbLinetypeTableRecord
  2
Gestrichelt
 70
     0
  3
Gestrichelt
 72
    65
 73
     2
 40
0.75
 49
0.5
 74
     0
 49
-0.25
 74
     0
  0
LTYPE
  5
63
330
5
100
AcDbSymbolTableRecord
100
AcDbLinetypeTableRecord
  2
Geteilt
 70
     0
  3
Geteilt
 72
    65
 73
     6
 40
1.25
 49
0.5
 74
     0
 49
-0.25
 74
     0
 49
0.0
 74
     0
 49
-0.25
 74
     0
 49
0.0
 74
     0
 49
-0.25
 74
     0
  0
LTYPE
  5
64
330
5
100
AcDbSymbolTableRecord
100
AcDbLinetypeTableRecord
  2
Punkt
 70
     0
  3
Punkt
 72
    65
 73
     2
 40
0.25
 49
0.0
 74
     0
 49
-0.25
 74
     0
  0
LTYPE
  5
65
330
5
100
AcDbSymbolTableRecord
100
AcDbLinetypeTableRecord
  2
Verdeckt
 70
     0
  3
Verdeckt
 72
    65
 73
     2
 40
0.375
 49
0.25
 74
     0
 49
-0.125
 74
     0
  0
LTYPE
  5
66
330
5
100
AcDbSymbolTableRecord
100
AcDbLinetypeTableRecord
  2
$INVISIBLE
 70
     0
  3
$INVISIBLE
 72
    65
 73
     2
 40
200.0
 49
-100.0
 74
     0
 49
-100.0
 74
     0
  0
LTYPE
  5
67
330
5
100
AcDbSymbolTableRecord
100
AcDbLinetypeTableRecord
  2
$SNAPEXT
 70
     0
  3
$SNAPEXT
 72
    65
 73
     2
 40
0.04
 49
0.02
 74
     0
 49
-0.02
 74
     0
  0
LTYPE
  5
68
330
5
100
AcDbSymbolTableRecord
100
AcDbLinetypeTableRecord
  2
$CONSTRUCTION
 70
     0
  3
$CONSTRUCTION
 72
    65
 73
     4
 40
0.3
 49
0.2
 74
     0
 49
-0.05
 74
     0
 49
0.0
 74
     0
 49
-0.05
 74
     0
  0
LTYPE
  5
69
330
5
100
AcDbSymbolTableRecord
100
AcDbLinetypeTableRecord
  2
$AUXILIARY
 70
     0
  3
$AUXILIARY
 72
    65
 73
     2
 40
0.1
 49
0.05
 74
     0
 49
-0.05
 74
     0
  0
ENDTAB
  0
TABLE
  2
LAYER
  5
2
330
0
100
AcDbSymbolTable
 70
    15
  0
LAYER
  5
10
330
2
100
AcDbSymbolTableRecord
100
AcDbLayerTableRecord
  2
0
 70
     0
 62
    -7
  6
Durchgehend
370
     0
390
F
347
0
  0
LAYER
  5
6A
330
2
100
AcDbSymbolTableRecord
100
AcDbLayerTableRecord
  2
$CONSTRUCTION
 70
     0
 62
   254
420
 12572888
  6
$CONSTRUCTION
370
     0
390
F
347
0
  0
LAYER
  5
6B
330
2
100
AcDbSymbolTableRecord
100
AcDbLayerTableRecord
  2
Grundplatte_Stepcraft
 70
     0
 62
   -97
420
  4353602
  6
Durchgehend
370
     0
390
F
347
0
  0
LAYER
  5
6C
330
2
100
AcDbSymbolTableRecord
100
AcDbLayerTableRecord
  2
Innenraum
 70
     0
 62
    -5
420
      255
  6
Durchgehend
370
     0
390
F
347
0
  0
LAYER
  5
6D
330
2
100
AcDbSymbolTableRecord
100
AcDbLayerTableRecord
  2
Aussenkontur
 70
     0
 62
  -190
420
  8257791
  6
Durchgehend
370
     0
390
F
347
0
  0
LAYER
  5
6E
330
2
100
AcDbSymbolTableRecord
100
AcDbLayerTableRecord
  2
Bohrungen
 70
     0
 62
  -164
420
  2302862
  6
Durchgehend
370
     0
390
F
347
0
  0
LAYER
  5
6F
330
2
100
AcDbSymbolTableRecord
100
AcDbLayerTableRecord
  2
Deckel_Aussen_oben
 70
     0
 62
  -150
420
    32511
  6
Durchgehend
370
     0
390
F
347
0
  0
LAYER
  5
70
330
2
100
AcDbSymbolTableRecord
100
AcDbLayerTableRecord
  2
Innenkontur_Deckel_oben
 70
     0
 62
    -6
420
 16711935
  6
Durchgehend
370
     0
390
F
347
0
  0
LAYER
  5
71
330
2
100
AcDbSymbolTableRecord
100
AcDbLayerTableRecord
  2
Innenkontur_Deckel_Mitte
 70
     0
 62
  -190
420
  8257791
  6
Durchgehend
370
     0
390
F
347
0
  0
LAYER
  5
72
330
2
100
AcDbSymbolTableRecord
100
AcDbLayerTableRecord
  2
Deckel_Innen_durch
 70
     0
 62
   -22
420
 13381937
  6
Durchgehend
370
     0
390
F
347
0
  0
LAYER
  5
73
330
2
100
AcDbSymbolTableRecord
100
AcDbLayerTableRecord
  2
Deckel_Innen_Schlauch
 70
     0
 62
  -230
420
 16711806
  6
Durchgehend
370
     0
390
F
347
0
  0
LAYER
  5
74
330
2
100
AcDbSymbolTableRecord
100
AcDbLayerTableRecord
  2
Deckel_planen_oben
 70
     0
 62
  -150
420
    32511
  6
Durchgehend
370
     0
390
F
347
0
  0
LAYER
  5
75
330
2
100
AcDbSymbolTableRecord
100
AcDbLayerTableRecord
  2
Querschnitt
 70
     0
 62
     7
  6
Durchgehend
370
     0
390
F
347
0
  0
LAYER
  5
76
330
2
100
AcDbSymbolTableRecord
100
AcDbLayerTableRecord
  2
Mittel- und Schnittlinien
 70
     0
 62
     7
  6
Durchgehend
370
     0
390
F
347
0
  0
LAYER
  5
77
330
2
100
AcDbSymbolTableRecord
100
AcDbLayerTableRecord
  2
Bemassung_und_Text
 70
     0
 62
     7
  6
Durchgehend
370
     0
390
F
347
0
  0
ENDTAB
  0
TABLE
  2
STYLE
  5
3
330
0
100
AcDbSymbolTable
 70
     2
  0
STYLE
  5
11
330
3
100
AcDbSymbolTableRecord
100
AcDbTextStyleTableRecord
  2
Standard
 70
     0
 40
0.0
 41
1.0
 50
0.0
 71
     0
 42
0.2
  3
txt
  4

  0
STYLE
  5
79
330
3
100
AcDbSymbolTableRecord
100
AcDbTextStyleTableRecord
  2
_TCW_TXTSTY_1
 70
     0
 40
0.0
 41
1.0
 50
0.0
 71
     0
 42
0.6000000238418579
  3

  4

1001
ACAD
1000
Times New Roman
1071
      290
  0
ENDTAB
  0
TABLE
  2
VIEW
  5
6
330
0
100
AcDbSymbolTable
 70
     1
  0
VIEW
  5
78
330
6
100
AcDbSymbolTableRecord
100
AcDbViewTableRecord
  2
Ansicht_0
 70
     0
 40
210.0
 10
148.5
 20
105.0
 41
297.0
 11
0.0
 21
0.0
 31
1.0
 12
0.0
 22
0.0
 32
0.0
 42
50.0
 43
0.0
 44
0.0
 50
0.0
 71
     0
281
     0
 72
     0
 73
     0
  0
ENDTAB
  0
TABLE
  2
UCS
  5
7
330
0
100
AcDbSymbolTable
 70
     0
  0
ENDTAB
  0
TABLE
  2
APPID
  5
9
330
0
100
AcDbSymbolTable
 70
     2
  0
APPID
  5
12
330
9
100
AcDbSymbolTableRecord
100
AcDbRegAppTableRecord
  2
ACAD
 70
     0
  0
APPID
  5
5D
330
9
100
AcDbSymbolTableRecord
100
AcDbRegAppTableRecord
  2
TCAD
 70
     0
  0
ENDTAB
  0
TABLE
  2
DIMSTYLE
  5
A
330
0
100
AcDbSymbolTable
 70
     1
100
AcDbDimStyleTable
  0
DIMSTYLE
105
27
330
A
100
AcDbSymbolTableRecord
100
AcDbDimStyleTableRecord
  2
Standard
 70
     0
  3
mm
 41
3.0
 42
1.0
 43
7.5
 44
2.0
 45
0.01
 77
     1
 78
     3
140
3.0
143
1.0
147
2.0
148
0.01
172
     1
176
     7
177
     7
178
     7
179
     2
271
     2
272
     2
276
     2
285
     3
340
79
  0
ENDTAB
  0
TABLE
  2
BLOCK_RECORD
  5
1
330
0
100
AcDbSymbolTable
 70
     1
  0
BLOCK_RECORD
  5
1F
330
1
100
AcDbSymbolTableRecord
100
AcDbBlockTableRecord
  2
*Model_Space
340
22
 70
     0
280
     1
281
     0
  0
BLOCK_RECORD
  5
1B
330
1
100
AcDbSymbolTableRecord
100
AcDbBlockTableRecord
  2
*Paper_Space
340
1E
 70
     0
280
     1
281
     0
  0
ENDTAB
  0
ENDSEC
  0
SECTION
  2
BLOCKS
  0
BLOCK
  5
20
330
1F
100
AcDbEntity
  8
0
100
AcDbBlockBegin
  2
*Model_Space
 70
     0
 10
0.0
 20
0.0
 30
0.0
  3
*Model_Space
  1

  0
ENDBLK
  5
21
330
1F
100
AcDbEntity
  8
0
100
AcDbBlockEnd
  0
BLOCK
  5
1C
330
1B
100
AcDbEntity
 67
     1
  8
0
100
AcDbBlockBegin
  2
*Paper_Space
 70
     0
 10
0.0
 20
0.0
 30
0.0
  3
*Paper_Space
  1

  0
ENDBLK
  5
1D
330
1B
100
AcDbEntity
 67
     1
  8
0
100
AcDbBlockEnd
  0
ENDSEC
  0
SECTION
  2
ENTITIES
  0
LINE
  5
7E
102
{ACAD_XDICTIONARY
360
7C
102
}
330
1F
100
AcDbEntity
  8
Grundplatte_Stepcraft
  6
Durchgehend
370
     0
100
AcDbLine
 10
0.0
 20
-37.50000000000001
 30
0.0
 11
-8.800000000000011
 21
-37.5
 31
0.0
  0
LINE
  5
81
102
{ACAD_XDICTIONARY
360
7F
102
}
330
1F
100
AcDbEntity
  8
Grundplatte_Stepcraft
  6
Durchgehend
370
     0
100
AcDbLine
 10
0.0
 20
-37.50000000000001
 30
0.0
 11
105.4999999999999
 21
-37.5
 31
0.0
  0
LINE
  5
84
102
{ACAD_XDICTIONARY
360
82
102
}
330
1F
100
AcDbEntity
  8
Grundplatte_Stepcraft
  6
Durchgehend
370
     0
100
AcDbLine
 10
-8.800000000000011
 20
37.5
 30
0.0
 11
105.4999999999999
 21
37.5
 31
0.0
  0
LINE
  5
87
102
{ACAD_XDICTIONARY
360
85
102
}
330
1F
100
AcDbEntity
  8
Grundplatte_Stepcraft
  6
Durchgehend
370
     0
100
AcDbLine
 10
105.4999999999999
 20
-37.5
 30
0.0
 11
105.4999999999999
 21
37.5
 31
0.0
  0
LWPOLYLINE
  5
88
330
1F
100
AcDbEntity
  8
Querschnitt
  6
Durchgehend
370
   211
100
AcDbPolyline
 90
        5
 70
   129
 43
0.5
 10
-45.0
 20
3.5
 10
-24.37211521390788
 20
3.5
 42
0.3292444222876858
 10
-20.54903831760861
 20
6.323529411764705
 42
-1.981712066892119
 10
0.0000000000000013
 20
-21.5
 10
-45.0
 20
-21.5
 42
-1.0
  0
LWPOLYLINE
  5
8B
102
{ACAD_XDICTIONARY
360
89
102
}
330
1F
100
AcDbEntity
  8
Querschnitt
  6
Durchgehend
370
   211
100
AcDbPolyline
 90
        3
 70
     1
 10
17.0
 20
0.0
 40
0.5
 41
0.5
 42
0.4142135623731
 10
0.0
 20
17.0
 40
0.5
 41
0.5
 42
2.414213562373
 10
17.0
 20
0.0
 40
0.5
 41
0.5
  0
LWPOLYLINE
  5
8E
102
{ACAD_XDICTIONARY
360
8C
102
}
330
1F
100
AcDbEntity
  8
Querschnitt
  6
Durchgehend
370
   211
100
AcDbPolyline
 90
        3
 70
     1
 10
-22.65263850183254
 20
8.179245283018805
 40
0.5
 41
0.5
 42
0.4142135623731
 10
-24.15263850183254
 20
9.679245283018805
 40
0.5
 41
0.5
 42
2.414213562373
 10
-22.65263850183254
 20
8.179245283018805
 40
0.5
 41
0.5
  0
LWPOLYLINE
  5
91
102
{ACAD_XDICTIONARY
360
8F
102
}
330
1F
100
AcDbEntity
  8
Querschnitt
  6
Durchgehend
370
   211
100
AcDbPolyline
 90
        3
 70
     1
 10
20.65975344979499
 20
16.82717586949984
 40
0.5
 41
0.5
 42
0.4142135623731
 10
19.15975344979499
 20
18.32717586949984
 40
0.5
 41
0.5
 42
2.414213562373
 10
20.65975344979499
 20
16.82717586949984
 40
0.5
 41
0.5
  0
LWPOLYLINE
  5
94
102
{ACAD_XDICTIONARY
360
92
102
}
330
1F
100
AcDbEntity
  8
Querschnitt
  6
Durchgehend
370
   211
100
AcDbPolyline
 90
        3
 70
     1
 10
6.492885052037962
 20
-25.00642115251877
 40
0.5
 41
0.5
 42
0.4142135623731
 10
4.992885052037962
 20
-23.50642115251877
 40
0.5
 41
0.5
 42
2.414213562373
 10
6.492885052037962
 20
-25.00642115251877
 40
0.5
 41
0.5
  0
LWPOLYLINE
  5
97
102
{ACAD_XDICTIONARY
360
95
102
}
330
1F
100
AcDbEntity
  8
Querschnitt
  6
Durchgehend
370
   211
100
AcDbPolyline
 90
        3
 70
     1
 10
-60.00000000000001
 20
-9.0
 40
0.5
 41
0.5
 42
0.4142135623731
 10
-61.50000000000001
 20
-7.5
 40
0.5
 41
0.5
 42
2.414213562373
 10
-60.00000000000001
 20
-9.0
 40
0.5
 41
0.5
  0
LWPOLYLINE
  5
9A
102
{ACAD_XDICTIONARY
360
98
102
}
330
1F
100
AcDbEntity
  8
0
  6
Durchgehend
370
   211
100
AcDbPolyline
 90
        4
 70
   129
 43
0.5
 10
-61.5
 20
-70.0
 10
-27.50117137400862
 20
-70.0
 10
-27.50117137400862
 20
-81.0
 10
-61.5
 20
-81.0
  0
LWPOLYLINE
  5
9D
102
{ACAD_XDICTIONARY
360
9B
102
}
330
1F
100
AcDbEntity
  8
0
  6
Durchgehend
370
   211
100
AcDbPolyline
 90
        4
 70
   129
 43
0.5
 10
-65.49999999999997
 20
-85.0
 10
26.50000000000085
 20
-85.0
 10
26.50000000000085
 20
-81.0
 10
-65.49999999999997
 20
-81.0
  0
LWPOLYLINE
  5
A0
102
{ACAD_XDICTIONARY
360
9E
102
}
330
1F
100
AcDbEntity
  8
0
  6
Verdeckt
370
   211
100
AcDbPolyline
 90
        2
 70
     0
 43
0.5
 10
-56.0
 20
-85.0
 10
-56.0
 20
-81.0
  0
LWPOLYLINE
  5
A3
102
{ACAD_XDICTIONARY
360
A1
102
}
330
1F
100
AcDbEntity
  8
0
  6
Verdeckt
370
   211
100
AcDbPolyline
 90
        2
 70
     0
 43
0.5
 10
-34.0
 20
-85.0
 10
-34.0
 20
-81.0
  0
LWPOLYLINE
  5
A6
102
{ACAD_XDICTIONARY
360
A4
102
}
330
1F
100
AcDbEntity
  8
0
  6
Verdeckt
370
   211
100
AcDbPolyline
 90
        2
 70
     0
 43
0.5
 10
-57.5
 20
-81.0
 10
-57.5
 20
-70.0
  0
LWPOLYLINE
  5
A9
102
{ACAD_XDICTIONARY
360
A7
102
}
330
1F
100
AcDbEntity
  8
0
  6
Verdeckt
370
   211
100
AcDbPolyline
 90
        2
 70
     0
 43
0.5
 10
-32.5
 20
-81.0
 10
-32.49999999999997
 20
-70.0
  0
LWPOLYLINE
  5
AC
102
{ACAD_XDICTIONARY
360
AA
102
}
330
1F
100
AcDbEntity
  8
0
  6
Durchgehend
370
   211
100
AcDbPolyline
 90
        4
 70
   129
 43
0.5
 10
-21.50000000000003
 20
-70.0
 10
21.5
 20
-70.0
 10
21.5
 20
-81.0
 10
-21.50000000000003
 20
-81.0
  0
LWPOLYLINE
  5
AF
102
{ACAD_XDICTIONARY
360
AD
102
}
330
1F
100
AcDbEntity
  8
0
  6
Verdeckt
370
   211
100
AcDbPolyline
 90
        2
 70
     0
 43
0.5
 10
-16.99999999999997
 20
-70.0
 10
-17.0
 20
-76.0
  0
LWPOLYLINE
  5
B2
102
{ACAD_XDICTIONARY
360
B0
102
}
330
1F
100
AcDbEntity
  8
0
  6
Verdeckt
370
   211
100
AcDbPolyline
 90
        2
 70
     0
 43
0.5
 10
-17.0
 20
-76.0
 10
17.0
 20
-76.0
  0
LWPOLYLINE
  5
B5
102
{ACAD_XDICTIONARY
360
B3
102
}
330
1F
100
AcDbEntity
  8
0
  6
Verdeckt
370
   211
100
AcDbPolyline
 90
        2
 70
     0
 43
0.5
 10
17.0
 20
-76.0
 10
17.0
 20
-70.0
  0
LWPOLYLINE
  5
B8
102
{ACAD_XDICTIONARY
360
B6
102
}
330
1F
100
AcDbEntity
  8
0
  6
Verdeckt
370
   211
100
AcDbPolyline
 90
        2
 70
     0
 43
0.5
 10
-9.999999999999744
 20
-85.0
 10
-9.99999999999978
 20
-76.0
  0
LWPOLYLINE
  5
BB
102
{ACAD_XDICTIONARY
360
B9
102
}
330
1F
100
AcDbEntity
  8
0
  6
Verdeckt
370
   211
100
AcDbPolyline
 90
        2
 70
     0
 43
0.5
 10
10.00000000000023
 20
-85.0
 10
10.0000000000002
 20
-76.0
  0
LWPOLYLINE
  5
BE
102
{ACAD_XDICTIONARY
360
BC
102
}
330
1F
100
AcDbEntity
  8
0
  6
Durchgehend
370
   211
100
AcDbPolyline
 90
        4
 70
   129
 43
0.5
 10
-65.5
 20
-85.0
 10
26.50000000000088
 20
-85.0
 10
26.50000000000088
 20
-100.0
 10
-65.5
 20
-100.0
  0
LWPOLYLINE
  5
C1
102
{ACAD_XDICTIONARY
360
BF
102
}
330
1F
100
AcDbEntity
  8
Mittel- und Schnittlinien
  6
Strichpunkt
 48
10.0
370
   211
100
AcDbPolyline
 90
        2
 70
     0
 43
0.5
 10
-61.5
 20
-82.5
 10
-61.5
 20
-102.5
  0
LWPOLYLINE
  5
C4
102
{ACAD_XDICTIONARY
360
C2
102
}
330
1F
100
AcDbEntity
  8
0
  6
Verdeckt
370
   211
100
AcDbPolyline
 90
        2
 70
     0
 43
0.5
 10
21.5
 20
-96.0
 10
21.5
 20
-85.0
  0
LWPOLYLINE
  5
C7
102
{ACAD_XDICTIONARY
360
C5
102
}
330
1F
100
AcDbEntity
  8
0
  6
Verdeckt
370
   211
100
AcDbPolyline
 90
        2
 70
     0
 43
0.5
 10
-17.0
 20
-100.0
 10
-17.0
 20
-96.0
  0
LWPOLYLINE
  5
CA
102
{ACAD_XDICTIONARY
360
C8
102
}
330
1F
100
AcDbEntity
  8
0
  6
Verdeckt
370
   211
100
AcDbPolyline
 90
        2
 70
     0
 43
0.5
 10
17.0
 20
-100.0
 10
17.0
 20
-96.0
  0
LWPOLYLINE
  5
CD
102
{ACAD_XDICTIONARY
360
CB
102
}
330
1F
100
AcDbEntity
  8
Querschnitt
  6
Durchgehend
370
   211
100
AcDbPolyline
 90
        3
 70
     1
 10
-33.97372055837118
 20
-25.49999999999999
 40
0.5
 41
0.5
 42
0.4142135623731
 10
-35.47372055837118
 20
-23.99999999999999
 40
0.5
 41
0.5
 42
2.414213562373
 10
-33.97372055837118
 20
-25.49999999999999
 40
0.5
 41
0.5
  0
LWPOLYLINE
  5
CE
330
1F
100
AcDbEntity
  8
Querschnitt
  6
Durchgehend
370
   211
100
AcDbPolyline
 90
       14
 70
   128
 43
0.5
 10
-45.00000153706031
 20
8.500000000000068
 10
-28.13975731264497
 20
8.500000000000012
 42
-0.4345266010501019
 10
-23.55834059175307
 20
12.13485016648166
 42
-0.481866033965209
 10
17.09199568425906
 20
20.25126375141319
 42
-0.8366600265339641
 10
22.28825881116807
 20
14.33469634022384
 42
-0.48186603396522
 10
8.992111025333342
 20
-24.92773433964901
 42
-0.8366600265339363
 10
1.270081780585743
 20
-26.46954650670571
 42
-0.0119870325384497
 10
0.0000039293882823
 20
-26.50000000000029
 10
-31.6007372121638
 20
-26.50000000000009
 42
-0.7745966692414692
 10
-39.34670390457859
 20
-26.50000000000004
 10
-45.00000000000011
 20
-26.5
 42
-0.3487880608295473
 10
-62.04545454545455
 20
-12.96263540321878
 42
-0.8717797887081358
 10
-62.04545454545455
 20
-5.037364596781204
 42
-0.3487880608295519
 10
-45.0
 20
8.50000000000007
  0
LWPOLYLINE
  5
CF
102
{ACAD_REACTORS
330
D6
330
D6
102
}
330
1F
100
AcDbEntity
  8
Querschnitt
  6
Durchgehend
 62
     7
370
   211
100
AcDbPolyline
 90
       88
 70
   129
 43
0.5
 10
-45.0
 20
3.5
 10
-24.37211521390788
 20
3.5
 10
-23.98127392991846
 20
3.519140408061407
 10
-23.59417307676045
 20
3.576378454635248
 10
-23.21451728857902
 20
3.671166359937494
 10
-22.8459399487285
 20
3.802596984374757
 10
-22.49196841755236
 20
3.969412510055292
 10
-22.15599027482502
 20
4.170016478362847
 10
-21.84122089992223
 20
4.402489068391347
 10
-21.55067269998444
 20
4.664605470022677
 10
-21.28712628056578
 20
4.95385717581343
 10
-21.05310383467168
 20
5.267475987922959
 10
-20.85084500485709
 20
5.602460510331509
 10
-20.68228544939035
 20
5.955604872812503
 10
-20.54903831760861
 20
6.323529411764706
 10
-19.79291776405448
 20
8.395856500999571
 10
-18.82843065221348
 20
10.37979764613878
 10
-17.66573045528253
 20
12.25446724591907
 10
-16.31705730082858
 20
14.00013003659169
 10
-14.79660911493799
 20
15.59840885153784
 10
-13.12039215597671
 20
17.03247808374885
 10
-11.30605251144152
 20
18.28724081452768
 10
-9.37269033179035
 20
19.34948774371983
 10
-7.340658756873441
 20
20.20803624836262
 10
-5.231349651732772
 20
20.85384810583686
 10
-3.066968407399649
 20
21.28012464221045
 10
-0.8703001774364958
 20
21.48237830411601
 10
1.335529988872305
 20
21.45847990070179
 10
3.527300591523665
 20
21.20868101832448
 10
5.681938140167504
 20
20.73561137201674
 10
7.776760056332148
 20
20.04425112161182
 10
9.789713460391742
 20
19.1418784439622
 10
11.69960732948671
 20
18.03799291317692
 10
13.48633558239445
 20
16.74421549547907
 10
15.13108874286237
 20
15.27416621147038
 10
16.61655195315381
 20
13.64332075369264
 10
17.92708725325297
 20
11.86884756891986
 10
19.04889820681579
 20
9.969427120269756
 10
19.97017514079512
 20
7.965055231821584
 10
20.68121946975497
 20
5.876832585996268
 10
21.17454579607075
 20
3.726742589729267
 10
21.44496071117319
 20
1.537419947911987
 10
21.48961746826927
 20
-0.6680876195947126
 10
21.30804595098245
 20
-2.866562008891485
 10
20.90215762242246
 20
-5.034859156660313
 10
20.27622540258417
 20
-7.150152685334755
 10
19.43683868591278
 20
-9.19017420388775
 10
18.39283397258018
 20
-11.13344773451152
 10
17.15520184373998
 20
-12.95951579730276
 10
15.73697126006315
 20
-14.64915477288521
 10
14.1530724015818
 20
-16.18457727577656
 10
12.42017949277108
 20
-17.54961940804837
 10
10.5565352675014
 20
-18.72991092199848
 10
8.581758921776105
 20
-19.71302650047717
 10
6.516639575999262
 20
-20.48861656228939
 10
4.382917421064442
 20
-21.04851621564163
 10
2.203054852211401
 20
-21.38683121264454
 10
0.0000000000000098
 20
-21.49999999999998
 10
-45.0
 20
-21.5
 10
-46.30660579084567
 20
-21.43152369210342
 10
-47.59889613522199
 20
-21.22684500917257
 10
-48.86271242968684
 20
-20.88820645368942
 10
-50.0842080384475
 20
-20.41931822053251
 10
-51.25
 20
-19.82531754730548
 10
-52.34731565365591
 20
-19.11271242968684
 10
-53.36413257948573
 20
-18.28931031846743
 10
-54.28931031846743
 20
-17.36413257948573
 10
-55.11271242968684
 20
-16.34731565365591
 10
-55.82531754730548
 20
-15.25
 10
-56.41931822053251
 20
-14.0842080384475
 10
-56.88820645368942
 20
-12.86271242968684
 10
-57.22684500917256
 20
-11.59889613522199
 10
-57.43152369210341
 20
-10.30660579084567
 10
-57.49999999999999
 20
-8.999999999999998
 10
-57.43152369210341
 20
-7.693394209154331
 10
-57.22684500917256
 20
-6.401103864778008
 10
-56.88820645368941
 20
-5.137287570313158
 10
-56.4193182205325
 20
-3.915791961552499
 10
-55.82531754730547
 20
-2.750000000000004
 10
-55.11271242968684
 20
-1.652684346344091
 10
-54.28931031846742
 20
-0.6358674205142787
 10
-53.36413257948573
 20
0.2893103184674199
 10
-52.34731565365591
 20
1.112712429686836
 10
-51.25
 20
1.825317547305474
 10
-50.0842080384475
 20
2.419318220532501
 10
-48.86271242968684
 20
2.888206453689408
 10
-47.59889613522199
 20
3.226845009172559
 10
-46.30660579084567
 20
3.431523692103404
  0
LWPOLYLINE
  5
D0
102
{ACAD_REACTORS
330
D6
330
D6
102
}
330
1F
100
AcDbEntity
  8
Querschnitt
  6
Durchgehend
 62
     7
370
   211
100
AcDbPolyline
 90
      121
 70
   129
 43
0.5
 10
-22.65263850183254
 20
8.179245283018805
 10
-22.65466036923431
 20
8.257101010216655
 10
-22.66072052084255
 20
8.334746852138688
 10
-22.67080261955995
 20
8.411973489322685
 10
-22.68487948583087
 20
8.488572732408286
 10
-22.70291317091259
 20
8.564338083378699
 10
-22.72485505917844
 20
8.639065292242842
 10
-22.75064599917693
 20
8.712552907657212
 10
-22.78021646309361
 20
8.784602820003089
 10
-22.81348673418574
 20
8.855020795455046
 10
-22.85036712168458
 20
8.923616999600991
 10
-22.89075820258577
 20
8.990206509202201
 10
-22.93455108967627
 20
9.054609810713655
 10
-22.98162772507495
 20
9.116653284220831
 10
-23.03186119849582
 20
9.176169671488296
 10
-23.0851160893757
 20
9.232998526858331
 10
-23.14124883194411
 20
9.286986649784069
 10
-23.20010810225124
 20
9.337988497831073
 10
-23.26153522611049
 20
9.385866579034017
 10
-23.32536460685614
 20
9.430491822550708
 10
-23.39142417176256
 20
9.471743926614264
 10
-23.45953583592195
 20
9.509511682845405
 10
-23.52951598232971
 20
9.54369327605058
 10
-23.60117595688346
 20
9.574196558697738
 10
-23.67432257696111
 20
9.600939299329765
 10
-23.74875865220709
 20
9.623849404245973
 10
-23.82428351612265
 20
9.642865111853961
 10
-23.90069356702729
 20
9.65793515916795
 10
-23.9777828169329
 20
9.669018920004731
 10
-24.05534344685093
 20
9.67608651450467
 10
-24.13316636703565
 20
9.67911888968253
 10
-24.21104178065315
 20
9.678107870790946
 10
-24.28875974935651
 20
9.673056183358106
 10
-24.36611075924247
 20
9.663977445840203
 10
-24.44288628566384
 20
9.650896132908484
 10
-24.51887935537513
 20
9.633847509469868
 10
-24.59388510449579
 20
9.612877535598992
 10
-24.66770133078703
 20
9.588042742637965
 10
-24.7401290387533
 20
9.559410080797882
 10
-24.81097297609897
 20
9.527056738672872
 10
-24.88004216009401
 20
9.49106993515331
 10
-24.94715039242964
 20
9.451546684299107
 10
-25.01211676117605
 20
9.408593533806945
 10
-25.07476612848899
 20
9.362326277776534
 10
-25.13492960275047
 20
9.31286964455019
 10
-25.19244499387062
 20
9.260356960467277
 10
-25.24715725052359
 20
9.204929790439964
 10
-25.29891887813842
 20
9.146737556319248
 10
-25.34759033651839
 20
9.085937134080073
 10
-25.39304041601673
 20
9.02269243091142
 10
-25.43514659125457
 20
8.957173943351519
 10
-25.47379535142774
 20
8.889558297659317
 10
-25.50888250631181
 20
8.820027773661314
 10
-25.54031346714056
 20
8.748769813357374
 10
-25.56800350160051
 20
8.675976515610238
 10
-25.59187796225429
 20
8.601844118280948
 10
-25.61187248777691
 20
8.52657246920627
 10
-25.62793317646256
 20
8.450364487444261
 10
-25.64001673153404
 20
8.373425616240358
 10
-25.64809057786321
 20
8.295963269188714
 10
-25.65213294978781
 20
8.218186271081821
 10
-25.65213294978781
 20
8.140304294955786
 10
-25.64809057786321
 20
8.062527296848895
 10
-25.64001673153404
 20
7.985064949797251
 10
-25.62793317646256
 20
7.908126078593348
 10
-25.61187248777691
 20
7.831918096831338
 10
-25.59187796225428
 20
7.75664644775666
 10
-25.56800350160051
 20
7.68251405042737
 10
-25.54031346714056
 20
7.609720752680234
 10
-25.50888250631181
 20
7.538462792376295
 10
-25.47379535142774
 20
7.468932268378291
 10
-25.43514659125457
 20
7.40131662268609
 10
-25.39304041601673
 20
7.335798135126189
 10
-25.34759033651839
 20
7.272553431957537
 10
-25.29891887813841
 20
7.21175300971836
 10
-25.24715725052358
 20
7.153560775597645
 10
-25.19244499387062
 20
7.098133605570332
 10
-25.13492960275047
 20
7.045620921487419
 10
-25.07476612848899
 20
6.996164288261078
 10
-25.01211676117604
 20
6.949897032230666
 10
-24.94715039242964
 20
6.906943881738504
 10
-24.88004216009401
 20
6.8674206308843
 10
-24.81097297609897
 20
6.83143382736474
 10
-24.7401290387533
 20
6.79908048523973
 10
-24.66770133078702
 20
6.770447823399646
 10
-24.59388510449578
 20
6.74561303043862
 10
-24.51887935537513
 20
6.724643056567743
 10
-24.44288628566384
 20
6.707594433129128
 10
-24.36611075924247
 20
6.69451312019741
 10
-24.28875974935651
 20
6.685434382679507
 10
-24.21104178065315
 20
6.680382695246667
 10
-24.13316636703565
 20
6.679371676355084
 10
-24.05534344685093
 20
6.682404051532942
 10
-23.9777828169329
 20
6.689471646032882
 10
-23.90069356702729
 20
6.700555406869662
 10
-23.82428351612265
 20
6.715625454183652
 10
-23.74875865220709
 20
6.73464116179164
 10
-23.67432257696111
 20
6.757551266707848
 10
-23.60117595688346
 20
6.784294007339875
 10
-23.52951598232971
 20
6.814797289987031
 10
-23.45953583592195
 20
6.848978883192207
 10
-23.39142417176256
 20
6.886746639423348
 10
-23.32536460685614
 20
6.927998743486904
 10
-23.2615352261105
 20
6.972623987003595
 10
-23.20010810225124
 20
7.020502068206538
 10
-23.14124883194412
 20
7.071503916253542
 10
-23.0851160893757
 20
7.12549203917928
 10
-23.03186119849583
 20
7.182320894549316
 10
-22.98162772507495
 20
7.24183728181678
 10
-22.93455108967627
 20
7.303880755323958
 10
-22.89075820258577
 20
7.368284056835411
 10
-22.85036712168458
 20
7.43487356643662
 10
-22.81348673418575
 20
7.503469770582567
 10
-22.78021646309362
 20
7.573887746034522
 10
-22.75064599917694
 20
7.6459376583804
 10
-22.72485505917844
 20
7.719425273794769
 10
-22.70291317091259
 20
7.794152482658912
 10
-22.68487948583087
 20
7.869917833629324
 10
-22.67080261955996
 20
7.946517076714925
 10
-22.66072052084255
 20
8.023743713898924
 10
-22.65466036923431
 20
8.101389555820957
  0
LWPOLYLINE
  5
D1
102
{ACAD_REACTORS
330
D6
330
D6
102
}
330
1F
100
AcDbEntity
  8
Querschnitt
  6
Durchgehend
 62
     7
370
   211
100
AcDbPolyline
 90
      121
 70
   129
 43
0.5
 10
20.65975344979499
 20
16.82717586949984
 10
20.65773158239323
 20
16.90503159669769
 10
20.65167143078498
 20
16.98267743861972
 10
20.64158933206758
 20
17.05990407580372
 10
20.62751246579666
 20
17.13650331888932
 10
20.60947878071494
 20
17.21226866985974
 10
20.58753689244909
 20
17.28699587872388
 10
20.5617459524506
 20
17.36048349413825
 10
20.53217548853392
 20
17.43253340648413
 10
20.49890521744179
 20
17.50295138193608
 10
20.46202482994295
 20
17.57154758608203
 10
20.42163374904176
 20
17.63813709568323
 10
20.37784086195127
 20
17.70254039719469
 10
20.33076422655258
 20
17.76458387070187
 10
20.28053075313171
 20
17.82410025796933
 10
20.22727586225183
 20
17.88092911333937
 10
20.17114311968342
 20
17.9349172362651
 10
20.1122838493763
 20
17.98591908431211
 10
20.05085672551704
 20
18.03379716551505
 10
19.98702734477139
 20
18.07842240903175
 10
19.92096777986497
 20
18.1196745130953
 10
19.85285611570558
 20
18.15744226932644
 10
19.78287596929782
 20
18.19162386253162
 10
19.71121599474407
 20
18.22212714517877
 10
19.63806937466642
 20
18.2488698858108
 10
19.56363329942044
 20
18.27177999072701
 10
19.48810843550488
 20
18.290795698335
 10
19.41169838460024
 20
18.30586574564899
 10
19.33460913469463
 20
18.31694950648577
 10
19.25704850477661
 20
18.32401710098571
 10
19.17922558459189
 20
18.32704947616356
 10
19.10135017097438
 20
18.32603845727198
 10
19.02363220227102
 20
18.32098676983914
 10
18.94628119238506
 20
18.31190803232124
 10
18.86950566596369
 20
18.29882671938952
 10
18.79351259625241
 20
18.28177809595091
 10
18.71850684713175
 20
18.26080812208003
 10
18.64469062084051
 20
18.235973329119
 10
18.57226291287424
 20
18.20734066727892
 10
18.50141897552856
 20
18.17498732515391
 10
18.43234979153352
 20
18.13900052163435
 10
18.36524155919789
 20
18.09947727078014
 10
18.30027519045149
 20
18.05652412028798
 10
18.23762582313854
 20
18.01025686425757
 10
18.17746234887706
 20
17.96080023103123
 10
18.11994695775691
 20
17.90828754694831
 10
18.06523470110395
 20
17.852860376921
 10
18.01347307348912
 20
17.79466814280028
 10
17.96480161510914
 20
17.73386772056111
 10
17.9193515356108
 20
17.67062301739245
 10
17.87724536037296
 20
17.60510452983256
 10
17.8385966001998
 20
17.53748888414035
 10
17.80350944531572
 20
17.46795836014235
 10
17.77207848448697
 20
17.39670039983841
 10
17.74438845002702
 20
17.32390710209127
 10
17.72051398937325
 20
17.24977470476198
 10
17.70051946385062
 20
17.17450305568731
 10
17.68445877516497
 20
17.0982950739253
 10
17.67237522009349
 20
17.02135620272139
 10
17.66430137376432
 20
16.94389385566975
 10
17.66025900183972
 20
16.86611685756286
 10
17.66025900183973
 20
16.78823488143682
 10
17.66430137376432
 20
16.71045788332993
 10
17.67237522009349
 20
16.63299553627829
 10
17.68445877516497
 20
16.55605666507438
 10
17.70051946385062
 20
16.47984868331237
 10
17.72051398937325
 20
16.4045770342377
 10
17.74438845002702
 20
16.33044463690841
 10
17.77207848448697
 20
16.25765133916127
 10
17.80350944531572
 20
16.18639337885733
 10
17.8385966001998
 20
16.11686285485933
 10
17.87724536037296
 20
16.04924720916712
 10
17.9193515356108
 20
15.98372872160722
 10
17.96480161510914
 20
15.92048401843857
 10
18.01347307348912
 20
15.8596835961994
 10
18.06523470110395
 20
15.80149136207868
 10
18.11994695775691
 20
15.74606419205137
 10
18.17746234887706
 20
15.69355150796845
 10
18.23762582313854
 20
15.64409487474211
 10
18.30027519045149
 20
15.5978276187117
 10
18.36524155919789
 20
15.55487446821954
 10
18.43234979153352
 20
15.51535121736534
 10
18.50141897552856
 20
15.47936441384577
 10
18.57226291287424
 20
15.44701107172077
 10
18.64469062084051
 20
15.41837840988068
 10
18.71850684713175
 20
15.39354361691965
 10
18.79351259625241
 20
15.37257364304878
 10
18.86950566596369
 20
15.35552501961016
 10
18.94628119238507
 20
15.34244370667844
 10
19.02363220227102
 20
15.33336496916054
 10
19.10135017097438
 20
15.3283132817277
 10
19.17922558459189
 20
15.32730226283612
 10
19.25704850477661
 20
15.33033463801398
 10
19.33460913469463
 20
15.33740223251392
 10
19.41169838460024
 20
15.3484859933507
 10
19.48810843550488
 20
15.36355604066469
 10
19.56363329942044
 20
15.38257174827267
 10
19.63806937466642
 20
15.40548185318888
 10
19.71121599474407
 20
15.43222459382091
 10
19.78287596929782
 20
15.46272787646807
 10
19.85285611570558
 20
15.49690946967324
 10
19.92096777986497
 20
15.53467722590438
 10
19.98702734477139
 20
15.57592932996794
 10
20.05085672551704
 20
15.62055457348463
 10
20.1122838493763
 20
15.66843265468757
 10
20.17114311968341
 20
15.71943450273458
 10
20.22727586225183
 20
15.77342262566031
 10
20.28053075313171
 20
15.83025148103035
 10
20.33076422655258
 20
15.88976786829781
 10
20.37784086195126
 20
15.95181134180499
 10
20.42163374904176
 20
16.01621464331645
 10
20.46202482994295
 20
16.08280415291766
 10
20.49890521744178
 20
16.1514003570636
 10
20.53217548853392
 20
16.22181833251556
 10
20.5617459524506
 20
16.29386824486144
 10
20.58753689244909
 20
16.3673558602758
 10
20.60947878071494
 20
16.44208306913995
 10
20.62751246579666
 20
16.51784842011036
 10
20.64158933206757
 20
16.59444766319596
 10
20.65167143078498
 20
16.67167430037996
 10
20.65773158239322
 20
16.74932014230199
  0
LWPOLYLINE
  5
D2
102
{ACAD_REACTORS
330
D6
330
D6
102
}
330
1F
100
AcDbEntity
  8
Querschnitt
  6
Durchgehend
 62
     7
370
   211
100
AcDbPolyline
 90
      121
 70
   129
 43
0.5
 10
6.492885052037962
 20
-25.00642115251877
 10
6.490863184636196
 20
-24.92856542532092
 10
6.484803033027954
 20
-24.85091958339888
 10
6.474720934310549
 20
-24.77369294621489
 10
6.460644068039634
 20
-24.69709370312929
 10
6.442610382957917
 20
-24.62132835215887
 10
6.420668494692066
 20
-24.54660114329473
 10
6.394877554693571
 20
-24.47311352788036
 10
6.365307090776891
 20
-24.40106361553448
 10
6.332036819684757
 20
-24.33064564008253
 10
6.295156432185927
 20
-24.26204943593658
 10
6.254765351284734
 20
-24.19545992633537
 10
6.210972464194237
 20
-24.13105662482392
 10
6.163895828795553
 20
-24.06901315131674
 10
6.113662355374681
 20
-24.00949676404928
 10
6.060407464494801
 20
-23.95266790867924
 10
6.004274721926389
 20
-23.8986797857535
 10
5.945415451619269
 20
-23.8476779377065
 10
5.883988327760011
 20
-23.79979985650355
 10
5.820158947014367
 20
-23.75517461298686
 10
5.754099382107944
 20
-23.71392250892331
 10
5.685987717948556
 20
-23.67615475269217
 10
5.61600757154079
 20
-23.64197315948699
 10
5.544347596987041
 20
-23.61146987683984
 10
5.471200976909389
 20
-23.58472713620781
 10
5.396764901663413
 20
-23.5618170312916
 10
5.321240037747853
 20
-23.54280132368361
 10
5.244829986843208
 20
-23.52773127636962
 10
5.1677407369376
 20
-23.51664751553284
 10
5.090180107019576
 20
-23.5095799210329
 10
5.012357186834858
 20
-23.50654754585505
 10
4.934481773217355
 20
-23.50755856474663
 10
4.85676380451399
 20
-23.51261025217947
 10
4.779412794628034
 20
-23.52168898969737
 10
4.702637268206662
 20
-23.53477030262909
 10
4.626644198495375
 20
-23.5518189260677
 10
4.551638449374718
 20
-23.57278889993858
 10
4.477822223083479
 20
-23.59762369289961
 10
4.405394515117207
 20
-23.62625635473969
 10
4.334550577771529
 20
-23.6586096968647
 10
4.265481393776487
 20
-23.69459650038426
 10
4.198373161440864
 20
-23.73411975123847
 10
4.133406792694459
 20
-23.77707290173063
 10
4.070757425381511
 20
-23.82334015776104
 10
4.010593951120035
 20
-23.87279679098738
 10
3.953078559999879
 20
-23.9253094750703
 10
3.898366303346918
 20
-23.98073664509761
 10
3.846604675732089
 20
-24.03892887921833
 10
3.797933217352109
 20
-24.0997293014575
 10
3.75248313785377
 20
-24.16297400462615
 10
3.710376962615933
 20
-24.22849249218605
 10
3.671728202442767
 20
-24.29610813787826
 10
3.636641047558688
 20
-24.36563866187626
 10
3.605210086729938
 20
-24.4368966221802
 10
3.577520052269991
 20
-24.50968991992734
 10
3.553645591616218
 20
-24.58382231725663
 10
3.533651066093593
 20
-24.6590939663313
 10
3.51759037740794
 20
-24.73530194809331
 10
3.505506822336464
 20
-24.81224081929722
 10
3.497432976007294
 20
-24.88970316634886
 10
3.493390604082696
 20
-24.96748016445575
 10
3.493390604082696
 20
-25.04536214058179
 10
3.497432976007294
 20
-25.12313913868868
 10
3.505506822336465
 20
-25.20060148574032
 10
3.517590377407941
 20
-25.27754035694423
 10
3.533651066093594
 20
-25.35374833870624
 10
3.553645591616219
 20
-25.42901998778091
 10
3.577520052269992
 20
-25.5031523851102
 10
3.605210086729939
 20
-25.57594568285734
 10
3.636641047558689
 20
-25.64720364316128
 10
3.671728202442768
 20
-25.71673416715928
 10
3.710376962615935
 20
-25.78434981285148
 10
3.752483137853772
 20
-25.84986830041138
 10
3.797933217352111
 20
-25.91311300358004
 10
3.846604675732091
 20
-25.97391342581921
 10
3.89836630334692
 20
-26.03210565993993
 10
3.953078559999881
 20
-26.08753282996724
 10
4.010593951120037
 20
-26.14004551405015
 10
4.070757425381514
 20
-26.1895021472765
 10
4.133406792694461
 20
-26.23576940330691
 10
4.198373161440866
 20
-26.27872255379907
 10
4.265481393776489
 20
-26.31824580465327
 10
4.33455057777153
 20
-26.35423260817283
 10
4.405394515117209
 20
-26.38658595029784
 10
4.47782222308348
 20
-26.41521861213793
 10
4.551638449374718
 20
-26.44005340509895
 10
4.626644198495376
 20
-26.46102337896983
 10
4.702637268206663
 20
-26.47807200240845
 10
4.779412794628035
 20
-26.49115331534016
 10
4.856763804513991
 20
-26.50023205285807
 10
4.934481773217356
 20
-26.50528374029091
 10
5.012357186834858
 20
-26.50629475918249
 10
5.090180107019576
 20
-26.50326238400463
 10
5.167740736937601
 20
-26.49619478950469
 10
5.244829986843209
 20
-26.48511102866791
 10
5.321240037747853
 20
-26.47004098135392
 10
5.396764901663412
 20
-26.45102527374593
 10
5.471200976909389
 20
-26.42811516882973
 10
5.544347596987041
 20
-26.4013724281977
 10
5.61600757154079
 20
-26.37086914555054
 10
5.685987717948555
 20
-26.33668755234537
 10
5.754099382107944
 20
-26.29891979611423
 10
5.820158947014366
 20
-26.25766769205067
 10
5.883988327760009
 20
-26.21304244853398
 10
5.945415451619267
 20
-26.16516436733103
 10
6.004274721926386
 20
-26.11416251928403
 10
6.0604074644948
 20
-26.06017439635829
 10
6.113662355374679
 20
-26.00334554098826
 10
6.163895828795551
 20
-25.94382915372079
 10
6.210972464194233
 20
-25.88178568021362
 10
6.25476535128473
 20
-25.81738237870216
 10
6.295156432185924
 20
-25.75079286910095
 10
6.332036819684753
 20
-25.68219666495501
 10
6.365307090776888
 20
-25.61177868950305
 10
6.394877554693567
 20
-25.53972877715717
 10
6.420668494692062
 20
-25.4662411617428
 10
6.442610382957913
 20
-25.39151395287866
 10
6.460644068039629
 20
-25.31574860190825
 10
6.474720934310545
 20
-25.23914935882265
 10
6.48480303302795
 20
-25.16192272163865
 10
6.490863184636192
 20
-25.08427687971662
  0
LWPOLYLINE
  5
D3
102
{ACAD_REACTORS
330
D6
330
D6
102
}
330
1F
100
AcDbEntity
  8
Querschnitt
  6
Durchgehend
 62
     7
370
   211
100
AcDbPolyline
 90
      121
 70
   129
 43
0.5
 10
-60.00000000000001
 20
-9.0
 10
-60.00202186740177
 20
-8.92214427280215
 10
-60.00808201901002
 20
-8.844498430880117
 10
-60.01816411772742
 20
-8.76727179369612
 10
-60.03224098399834
 20
-8.690672550610518
 10
-60.05027466908005
 20
-8.614907199640106
 10
-60.0722165573459
 20
-8.540179990775963
 10
-60.0980074973444
 20
-8.466692375361593
 10
-60.12757796126107
 20
-8.394642463015716
 10
-60.16084823235321
 20
-8.32422448756376
 10
-60.19772861985204
 20
-8.255628283417813
 10
-60.23811970075324
 20
-8.189038773816604
 10
-60.28191258784373
 20
-8.12463547230515
 10
-60.32898922324242
 20
-8.062591998797974
 10
-60.37922269666329
 20
-8.003075611530509
 10
-60.43247758754317
 20
-7.946246756160472
 10
-60.48861033011158
 20
-7.892258633234735
 10
-60.5474696004187
 20
-7.84125678518773
 10
-60.60889672427796
 20
-7.793378703984787
 10
-60.6727261050236
 20
-7.748753460468096
 10
-60.73878566993002
 20
-7.70750135640454
 10
-60.80689733408941
 20
-7.6697336001734
 10
-60.87687748049718
 20
-7.635552006968224
 10
-60.94853745505092
 20
-7.605048724321067
 10
-61.02168407512858
 20
-7.57830598368904
 10
-61.09612015037455
 20
-7.555395878772831
 10
-61.17164501429011
 20
-7.536380171164843
 10
-61.24805506519476
 20
-7.521310123850855
 10
-61.32514431510037
 20
-7.510226363014073
 10
-61.40270494501839
 20
-7.503158768514135
 10
-61.48052786520311
 20
-7.500126393336275
 10
-61.55840327882061
 20
-7.501137412227859
 10
-61.63612124752398
 20
-7.506189099660698
 10
-61.71347225740993
 20
-7.515267837178603
 10
-61.7902477838313
 20
-7.528349150110321
 10
-61.86624085354259
 20
-7.545397773548936
 10
-61.94124660266325
 20
-7.566367747419813
 10
-62.01506282895449
 20
-7.59120254038084
 10
-62.08749053692076
 20
-7.619835202220924
 10
-62.15833447426644
 20
-7.652188544345933
 10
-62.22740365826148
 20
-7.688175347865493
 10
-62.29451189059711
 20
-7.727698598719698
 10
-62.35947825934351
 20
-7.770651749211861
 10
-62.42212762665645
 20
-7.816919005242271
 10
-62.48229110091793
 20
-7.866375638468615
 10
-62.53980649203809
 20
-7.918888322551527
 10
-62.59451874869105
 20
-7.974315492578841
 10
-62.64628037630588
 20
-8.032507726699556
 10
-62.69495183468586
 20
-8.093308148938732
 10
-62.7404019141842
 20
-8.156552852107385
 10
-62.78250808942204
 20
-8.222071339667286
 10
-62.82115684959521
 20
-8.289686985359488
 10
-62.85624400447928
 20
-8.35921750935749
 10
-62.88767496530803
 20
-8.430475469661431
 10
-62.91536499976798
 20
-8.503268767408567
 10
-62.93923946042175
 20
-8.577401164737857
 10
-62.95923398594437
 20
-8.652672813812535
 10
-62.97529467463003
 20
-8.728880795574543
 10
-62.98737822970151
 20
-8.805819666778447
 10
-62.99545207603067
 20
-8.88328201383009
 10
-62.99949444795527
 20
-8.961059011936984
 10
-62.99949444795527
 20
-9.038940988063018
 10
-62.99545207603067
 20
-9.11671798616991
 10
-62.98737822970151
 20
-9.194180333221553
 10
-62.97529467463003
 20
-9.271119204425457
 10
-62.95923398594437
 20
-9.347327186187467
 10
-62.93923946042175
 20
-9.422598835262145
 10
-62.91536499976797
 20
-9.496731232591435
 10
-62.88767496530803
 20
-9.56952453033857
 10
-62.85624400447928
 20
-9.64078249064251
 10
-62.8211568495952
 20
-9.710313014640514
 10
-62.78250808942204
 20
-9.777928660332716
 10
-62.7404019141842
 20
-9.843447147892615
 10
-62.69495183468586
 20
-9.906691851061268
 10
-62.64628037630588
 20
-9.967492273300444
 10
-62.59451874869105
 20
-10.02568450742116
 10
-62.53980649203809
 20
-10.08111167744847
 10
-62.48229110091793
 20
-10.13362436153139
 10
-62.42212762665645
 20
-10.18308099475773
 10
-62.3594782593435
 20
-10.22934825078814
 10
-62.2945118905971
 20
-10.2723014012803
 10
-62.22740365826148
 20
-10.3118246521345
 10
-62.15833447426644
 20
-10.34781145565407
 10
-62.08749053692076
 20
-10.38016479777907
 10
-62.01506282895449
 20
-10.40879745961916
 10
-61.94124660266325
 20
-10.43363225258019
 10
-61.86624085354259
 20
-10.45460222645106
 10
-61.7902477838313
 20
-10.47165084988968
 10
-61.71347225740993
 20
-10.48473216282139
 10
-61.63612124752398
 20
-10.4938109003393
 10
-61.55840327882061
 20
-10.49886258777214
 10
-61.48052786520311
 20
-10.49987360666372
 10
-61.40270494501839
 20
-10.49684123148586
 10
-61.32514431510037
 20
-10.48977363698592
 10
-61.24805506519476
 20
-10.47868987614914
 10
-61.17164501429011
 20
-10.46361982883515
 10
-61.09612015037455
 20
-10.44460412122717
 10
-61.02168407512858
 20
-10.42169401631096
 10
-60.94853745505092
 20
-10.39495127567893
 10
-60.87687748049718
 20
-10.36444799303177
 10
-60.80689733408941
 20
-10.3302663998266
 10
-60.73878566993002
 20
-10.29249864359546
 10
-60.6727261050236
 20
-10.2512465395319
 10
-60.60889672427796
 20
-10.20662129601521
 10
-60.5474696004187
 20
-10.15874321481227
 10
-60.48861033011158
 20
-10.10774136676526
 10
-60.43247758754317
 20
-10.05375324383952
 10
-60.37922269666329
 20
-9.99692438846949
 10
-60.32898922324242
 20
-9.937408001202025
 10
-60.28191258784373
 20
-9.875364527694847
 10
-60.23811970075324
 20
-9.810961226183393
 10
-60.19772861985204
 20
-9.744371716582185
 10
-60.16084823235322
 20
-9.675775512436237
 10
-60.12757796126108
 20
-9.605357536984283
 10
-60.0980074973444
 20
-9.533307624638406
 10
-60.07221655734591
 20
-9.459820009224035
 10
-60.05027466908005
 20
-9.385092800359892
 10
-60.03224098399834
 20
-9.30932744938948
 10
-60.01816411772742
 20
-9.232728206303879
 10
-60.00808201901002
 20
-9.155501569119881
 10
-60.00202186740178
 20
-9.077855727197848
  0
LWPOLYLINE
  5
D4
102
{ACAD_REACTORS
330
D6
330
D6
102
}
330
1F
100
AcDbEntity
  8
Querschnitt
  6
Durchgehend
 62
     7
370
   211
100
AcDbPolyline
 90
      121
 70
   129
 43
0.5
 10
-33.97372055837118
 20
-25.49999999999999
 10
-33.97574242577294
 20
-25.42214427280214
 10
-33.98180257738119
 20
-25.3444984308801
 10
-33.99188467609859
 20
-25.26727179369611
 10
-34.0059615423695
 20
-25.19067255061051
 10
-34.02399522745122
 20
-25.11490719964009
 10
-34.04593711571707
 20
-25.04017999077595
 10
-34.07172805571557
 20
-24.96669237536158
 10
-34.10129851963224
 20
-24.8946424630157
 10
-34.13456879072438
 20
-24.82422448756375
 10
-34.17144917822321
 20
-24.7556282834178
 10
-34.21184025912441
 20
-24.68903877381659
 10
-34.2556331462149
 20
-24.62463547230514
 10
-34.30270978161359
 20
-24.56259199879796
 10
-34.35294325503446
 20
-24.5030756115305
 10
-34.40619814591434
 20
-24.44624675616046
 10
-34.46233088848275
 20
-24.39225863323473
 10
-34.52119015878987
 20
-24.34125678518772
 10
-34.58261728264913
 20
-24.29337870398478
 10
-34.64644666339477
 20
-24.24875346046808
 10
-34.71250622830119
 20
-24.20750135640453
 10
-34.78061789246058
 20
-24.16973360017339
 10
-34.85059803886835
 20
-24.13555200696821
 10
-34.92225801342209
 20
-24.10504872432106
 10
-34.99540463349975
 20
-24.07830598368903
 10
-35.06984070874572
 20
-24.05539587877282
 10
-35.14536557266128
 20
-24.03638017116483
 10
-35.22177562356593
 20
-24.02131012385084
 10
-35.29886487347154
 20
-24.01022636301406
 10
-35.37642550338956
 20
-24.00315876851413
 10
-35.45424842357428
 20
-24.00012639333627
 10
-35.53212383719178
 20
-24.00113741222785
 10
-35.60984180589515
 20
-24.00618909966069
 10
-35.6871928157811
 20
-24.01526783717859
 10
-35.76396834220247
 20
-24.02834915011031
 10
-35.83996141191376
 20
-24.04539777354892
 10
-35.91496716103442
 20
-24.0663677474198
 10
-35.98878338732566
 20
-24.09120254038083
 10
-36.06121109529193
 20
-24.11983520222091
 10
-36.13205503263761
 20
-24.15218854434592
 10
-36.20112421663265
 20
-24.18817534786548
 10
-36.26823244896828
 20
-24.22769859871969
 10
-36.33319881771468
 20
-24.27065174921185
 10
-36.39584818502762
 20
-24.31691900524226
 10
-36.4560116592891
 20
-24.3663756384686
 10
-36.51352705040926
 20
-24.41888832255152
 10
-36.56823930706222
 20
-24.47431549257883
 10
-36.62000093467705
 20
-24.53250772669955
 10
-36.66867239305703
 20
-24.59330814893872
 10
-36.71412247255537
 20
-24.65655285210737
 10
-36.75622864779321
 20
-24.72207133966727
 10
-36.79487740796637
 20
-24.78968698535948
 10
-36.82996456285045
 20
-24.85921750935748
 10
-36.8613955236792
 20
-24.93047546966142
 10
-36.88908555813915
 20
-25.00326876740856
 10
-36.91296001879292
 20
-25.07740116473785
 10
-36.93295454431554
 20
-25.15267281381252
 10
-36.9490152330012
 20
-25.22888079557453
 10
-36.96109878807268
 20
-25.30581966677844
 10
-36.96917263440184
 20
-25.38328201383008
 10
-36.97321500632644
 20
-25.46105901193697
 10
-36.97321500632644
 20
-25.53894098806301
 10
-36.96917263440184
 20
-25.6167179861699
 10
-36.96109878807268
 20
-25.69418033322154
 10
-36.9490152330012
 20
-25.77111920442545
 10
-36.93295454431554
 20
-25.84732718618746
 10
-36.91296001879292
 20
-25.92259883526213
 10
-36.88908555813914
 20
-25.99673123259142
 10
-36.8613955236792
 20
-26.06952453033856
 10
-36.82996456285045
 20
-26.1407824906425
 10
-36.79487740796637
 20
-26.2103130146405
 10
-36.75622864779321
 20
-26.27792866033271
 10
-36.71412247255537
 20
-26.3434471478926
 10
-36.66867239305703
 20
-26.40669185106126
 10
-36.62000093467705
 20
-26.46749227330043
 10
-36.56823930706222
 20
-26.52568450742115
 10
-36.51352705040926
 20
-26.58111167744846
 10
-36.4560116592891
 20
-26.63362436153137
 10
-36.39584818502762
 20
-26.68308099475772
 10
-36.33319881771467
 20
-26.72934825078813
 10
-36.26823244896827
 20
-26.77230140128029
 10
-36.20112421663265
 20
-26.81182465213449
 10
-36.13205503263761
 20
-26.84781145565405
 10
-36.06121109529193
 20
-26.88016479777906
 10
-35.98878338732566
 20
-26.90879745961915
 10
-35.91496716103442
 20
-26.93363225258017
 10
-35.83996141191376
 20
-26.95460222645105
 10
-35.76396834220247
 20
-26.97165084988967
 10
-35.6871928157811
 20
-26.98473216282138
 10
-35.60984180589515
 20
-26.99381090033929
 10
-35.53212383719178
 20
-26.99886258777213
 10
-35.45424842357428
 20
-26.99987360666371
 10
-35.37642550338956
 20
-26.99684123148585
 10
-35.29886487347154
 20
-26.98977363698591
 10
-35.22177562356593
 20
-26.97868987614913
 10
-35.14536557266128
 20
-26.96361982883514
 10
-35.06984070874572
 20
-26.94460412122715
 10
-34.99540463349975
 20
-26.92169401631094
 10
-34.92225801342209
 20
-26.89495127567892
 10
-34.85059803886835
 20
-26.86444799303176
 10
-34.78061789246058
 20
-26.83026639982659
 10
-34.71250622830119
 20
-26.79249864359545
 10
-34.64644666339477
 20
-26.75124653953189
 10
-34.58261728264913
 20
-26.7066212960152
 10
-34.52119015878987
 20
-26.65874321481225
 10
-34.46233088848275
 20
-26.60774136676525
 10
-34.40619814591434
 20
-26.55375324383951
 10
-34.35294325503446
 20
-26.49692438846948
 10
-34.30270978161359
 20
-26.43740800120201
 10
-34.2556331462149
 20
-26.37536452769484
 10
-34.21184025912441
 20
-26.31096122618338
 10
-34.17144917822321
 20
-26.24437171658217
 10
-34.13456879072439
 20
-26.17577551243623
 10
-34.10129851963225
 20
-26.10535753698427
 10
-34.07172805571557
 20
-26.03330762463839
 10
-34.04593711571708
 20
-25.95982000922402
 10
-34.02399522745122
 20
-25.88509280035988
 10
-34.00596154236951
 20
-25.80932744938947
 10
-33.99188467609859
 20
-25.73272820630387
 10
-33.98180257738119
 20
-25.65550156911987
 10
-33.97574242577295
 20
-25.57785572719784
  0
LWPOLYLINE
  5
D5
102
{ACAD_REACTORS
330
D6
330
D6
102
}
330
1F
100
AcDbEntity
  8
Querschnitt
  6
Durchgehend
 62
     7
370
   211
100
AcDbPolyline
 90
      191
 70
   129
 43
0.5
 10
-45.00000153706031
 20
8.500000000000068
 10
-28.13975731264497
 20
8.500000000000012
 10
-28.0860269826416
 20
8.906194427759111
 10
-27.99102536221376
 20
9.304761302475134
 10
-27.85574926097908
 20
9.691518639754669
 10
-27.68161807071357
 20
10.06240836741173
 10
-27.47045887230702
 20
10.41353890500867
 10
-27.22448726501838
 20
10.74122599647346
 10
-26.94628411918123
 20
11.04203136735491
 10
-26.63876849628285
 20
11.31279880110247
 10
-26.3051670205544
 20
11.55068725583831
 10
-25.9489800234424
 20
11.75320067414226
 10
-25.5739448161926
 20
11.9182141730686
 10
-25.18399647591049
 20
12.04399633959487
 10
-24.78322655655288
 20
12.12922739756616
 10
-24.3758401580777
 20
12.17301305551753
 10
-23.96611180420629
 20
12.17489389007532
 10
-23.55834059175307
 20
12.13485016648166
 10
-22.23227502387816
 20
14.42137119911434
 10
-20.68502235402248
 20
16.56441517873759
 10
-18.9319760735723
 20
18.54266113452136
 10
-16.99057709786331
 20
20.33642765781559
 10
-14.88014024792772
 20
21.92786871088951
 10
-12.62166208890561
 20
23.30115117571426
 10
-10.23761203692036
 20
24.44261237637074
 10
-7.751708812679105
 20
25.34089600790477
 10
-5.188684465843161
 20
25.98706511928445
 10
-2.57403831787081
 20
26.37469102640157
 10
0.0662167286648196
 20
26.49991727052863
 10
2.705812990334743
 20
26.36149798591414
 10
5.318489337907205
 20
25.96081029479991
 10
7.878252466193573
 20
25.3018406065436
 10
10.35963549933455
 20
24.39114495715512
 10
12.73795135868366
 20
23.23778378382581
 10
14.98953837255145
 20
21.85323178337334
 10
17.09199568425906
 20
20.25126375141321
 10
17.45578867287316
 20
20.44608510281997
 10
17.83771831086689
 20
20.60238753130628
 10
18.23371941800543
 20
20.71850738608482
 10
18.6395770402408
 20
20.79320871138898
 10
19.05097131281273
 20
20.82569640173092
 10
19.46352343999758
 20
20.81562466484024
 10
19.87284230210619
 20
20.76310070220555
 10
20.27457119365552
 20
20.66868356804395
 10
20.66443419524255
 20
20.53337821884335
 10
21.03828168554784
 20
20.35862481681301
 10
21.39213450904836
 20
20.14628340109425
 10
21.72222632932759
 20
19.89861408988779
 10
22.02504371718289
 20
19.61825302422204
 10
22.29736354684078
 20
19.30818430941218
 10
22.53628730224242
 20
18.97170825285908
 10
22.73927192825023
 20
18.61240623625855
 10
22.90415689840192
 20
18.23410259611373
 10
23.02918721110819
 20
17.84082391828678
 10
23.1130320695274
 20
17.43675617985001
 10
23.15479904629249
 20
17.02620019440997
 10
23.15404358232366
 20
16.61352583513509
 10
23.11077371862347
 20
16.20312552272767
 10
23.02545001069005
 20
15.79936747340452
 10
22.89898062645946
 20
15.40654920450518
 10
22.73271167995359
 20
15.02885179260437
 10
22.52841290352039
 20
14.67029537099594
 10
22.28825881116807
 20
14.33469634022384
 10
23.60541132777799
 20
12.04302935504395
 10
24.68771552063122
 20
9.631547247063962
 10
25.52440363304873
 20
7.124241656292361
 10
26.10715152282516
 20
4.546057562800116
 10
26.43016147844484
 20
1.922645111136087
 10
26.49021990004373
 20
-0.7198955808817972
 10
26.28672927125389
 20
-3.355274090122932
 10
25.82171410384545
 20
-5.957271249432566
 10
25.09980079602307
 20
-8.500000000000398
 10
24.12817160476526
 20
-10.95816293961018
 10
22.91649319013195
 20
-13.30730400444367
 10
21.4768204424471
 20
-15.52405178047704
 10
19.82347654917216
 20
-17.58635202378443
 10
17.97291049467503
 20
-19.473687076423
 10
15.94353341061808
 20
-21.16727999494853
 10
13.75553540510164
 20
-22.6502813607036
 10
11.43068469291526
 20
-23.90793691331799
 10
8.99211102533335
 20
-24.92773433964902
 10
8.97893477054416
 20
-25.34019898521086
 10
8.923331825289615
 20
-25.74911096841477
 10
8.825894015842302
 20
-26.15011791451277
 10
8.687658450134377
 20
-26.53895158834021
 10
8.5100964789948
 20
-26.91147332452987
 10
8.295098035394801
 20
-27.2637180786119
 10
8.044951518391418
 20
-27.59193663012874
 10
7.762319435880283
 20
-27.8926354885638
 10
7.450210065411122
 20
-28.1626140773335
 10
7.111945434702445
 20
-28.39899880006375
 10
6.75112596266419
 20
-28.59927362655666
 10
6.371592137281985
 20
-28.76130687289668
 10
5.977383638255725
 20
-28.88337389065412
 10
5.572696339482657
 20
-28.96417542368717
 10
5.16183764904166
 20
-29.00285143715601
 10
4.749180662030724
 20
-28.99899027155618
 10
4.339117614245353
 20
-28.95263302433737
 10
3.936013132127336
 20
-28.86427311247063
 10
3.544157776581776
 20
-28.73485102061999
 10
3.167722375132409
 20
-28.56574429081781
 10
2.810713628494319
 20
-28.35875286019172
 10
2.476931464078525
 20
-28.11607990280537
 10
2.169928590348944
 20
-27.84030837952838
 10
1.892972682526794
 20
-27.53437354553404
 10
1.649011602130001
 20
-27.20153170804908
 10
1.440642020543653
 20
-26.84532556689166
 10
1.270081780585747
 20
-26.46954650670571
 10
0.0000039293882821
 20
-26.50000000000029
 10
-31.6007372121638
 20
-26.50000000000009
 10
-31.72184845797923
 20
-26.88688706905082
 10
-31.88149835670502
 20
-27.25952824753017
 10
-32.07804700914696
 20
-27.61409582259152
 10
-32.30947549779036
 20
-27.94694773066156
 10
-32.57340662481001
 20
-28.2546649681569
 10
-32.86712933028058
 20
-28.5340867109628
 10
-33.1876265397669
 20
-28.78234278193209
 10
-33.53160615524843
 20
-28.99688313290322
 10
-33.89553487104344
 20
-29.1755040384026
 10
-34.27567446738146
 20
-29.31637073197353
 10
-34.66812020882139
 20
-29.41803625261497
 10
-35.06884095309324
 20
-29.47945630774229
 10
-35.47372055837122
 20
-29.49999999999999
 10
-35.8786001636492
 20
-29.47945630774229
 10
-36.27932090792105
 20
-29.41803625261496
 10
-36.67176664936098
 20
-29.31637073197351
 10
-37.05190624569898
 20
-29.17550403840258
 10
-37.41583496149401
 20
-28.9968831329032
 10
-37.75981457697552
 20
-28.78234278193205
 10
-38.08031178646184
 20
-28.53408671096276
 10
-38.3740344919324
 20
-28.25466496815686
 10
-38.63796561895206
 20
-27.94694773066152
 10
-38.86939410759545
 20
-27.61409582259148
 10
-39.06594276003739
 20
-27.25952824753012
 10
-39.22559265876317
 20
-26.88688706905077
 10
-39.34670390457859
 20
-26.50000000000004
 10
-45.00000000000011
 20
-26.5
 10
-46.80383896529167
 20
-26.40678502731895
 10
-48.58846138202659
 20
-26.12813314140521
 10
-50.33485541822522
 20
-25.66701285973682
 10
-52.02441649418761
 20
-25.02833656110903
 10
-53.63914547968075
 20
-24.21890815337654
 10
-55.16184044118808
 20
-23.24735059047238
 10
-56.57627989651091
 20
-22.12401401087474
 10
-57.86739562448503
 20
-20.86086547613549
 10
-59.02143318884632
 20
-19.47136148410122
 10
-60.0260984661622
 20
-17.97030461496139
 10
-60.87068861684656
 20
-16.37368583729308
 10
-61.54620610400539
 20
-14.69851415403829
 10
-62.04545454545455
 20
-12.96263540321879
 10
-62.44777522236954
 20
-12.88609342757766
 10
-62.84016080990882
 20
-12.76881533158424
 10
-63.21849811140937
 20
-12.61203048728584
 10
-63.57882119189433
 20
-12.4173823977031
 10
-63.91735295113546
 20
-12.18691146874786
 10
-64.23054471724812
 20
-11.92303362059151
 10
-64.51511344577764
 20
-11.62851496269107
 10
-64.76807613433617
 20
-11.30644279794282
 10
-64.98678109203728
 20
-10.96019325991375
 10
-65.16893573594527
 20
-10.5933959223946
 10
-65.31263062316197
 20
-10.20989575225622
 10
-65.4163594666336
 20
-9.813712804439904
 10
-65.47903492486145
 20
-9.40900008158045
 10
-65.5
 20
-8.999999999999991
 10
-65.47903492486145
 20
-8.590999918419534
 10
-65.4163594666336
 20
-8.18628719556008
 10
-65.31263062316197
 20
-7.790104247743766
 10
-65.16893573594527
 20
-7.406604077605383
 10
-64.98678109203728
 20
-7.039806740086231
 10
-64.76807613433617
 20
-6.693557202057162
 10
-64.51511344577764
 20
-6.371485037308911
 10
-64.23054471724812
 20
-6.076966379408468
 10
-63.91735295113546
 20
-5.813088531252127
 10
-63.57882119189433
 20
-5.582617602296887
 10
-63.21849811140937
 20
-5.387969512714146
 10
-62.84016080990882
 20
-5.231184668415742
 10
-62.44777522236954
 20
-5.113906572422326
 10
-62.04545454545455
 20
-5.037364596781203
 10
-61.54620610400539
 20
-3.301485845961688
 10
-60.87068861684657
 20
-1.626314162706878
 10
-60.0260984661622
 20
-0.0296953850385577
 10
-59.02143318884632
 20
1.471361484101289
 10
-57.86739562448503
 20
2.860865476135565
 10
-56.5762798965109
 20
4.124014010874827
 10
-55.16184044118805
 20
5.247350590472472
 10
-53.63914547968071
 20
6.218908153376633
 10
-52.02441649418756
 20
7.028336561109121
 10
-50.33485541822515
 20
7.667012859736907
 10
-48.58846138202651
 20
8.12813314140529
 10
-46.80383896529158
 20
8.406785027319021
 10
-45.0
 20
8.500000000000053
  0
HATCH
  5
D6
330
1F
100
AcDbEntity
  8
Querschnitt
  6
Durchgehend
 62
     7
100
AcDbHatch
 10
0.0
 20
0.0
 30
0.0
210
0.0
220
0.0
230
1.0
  2
_U
 70
     0
 71
     1
 91
        7
 92
        3
 72
     0
 73
     1
 93
       88
 10
-45.0
 20
3.5
 10
-24.37211521390788
 20
3.5
 10
-23.98127392991846
 20
3.519140408061407
 10
-23.59417307676045
 20
3.576378454635248
 10
-23.21451728857902
 20
3.671166359937494
 10
-22.8459399487285
 20
3.802596984374757
 10
-22.49196841755236
 20
3.969412510055292
 10
-22.15599027482502
 20
4.170016478362847
 10
-21.84122089992223
 20
4.402489068391347
 10
-21.55067269998444
 20
4.664605470022677
 10
-21.28712628056578
 20
4.95385717581343
 10
-21.05310383467168
 20
5.267475987922959
 10
-20.85084500485709
 20
5.602460510331509
 10
-20.68228544939035
 20
5.955604872812503
 10
-20.54903831760861
 20
6.323529411764706
 10
-19.79291776405448
 20
8.395856500999571
 10
-18.82843065221348
 20
10.37979764613878
 10
-17.66573045528253
 20
12.25446724591907
 10
-16.31705730082858
 20
14.00013003659169
 10
-14.79660911493799
 20
15.59840885153784
 10
-13.12039215597671
 20
17.03247808374885
 10
-11.30605251144152
 20
18.28724081452768
 10
-9.37269033179035
 20
19.34948774371983
 10
-7.340658756873441
 20
20.20803624836262
 10
-5.231349651732772
 20
20.85384810583686
 10
-3.066968407399649
 20
21.28012464221045
 10
-0.8703001774364958
 20
21.48237830411601
 10
1.335529988872305
 20
21.45847990070179
 10
3.527300591523665
 20
21.20868101832448
 10
5.681938140167504
 20
20.73561137201674
 10
7.776760056332148
 20
20.04425112161182
 10
9.789713460391742
 20
19.1418784439622
 10
11.69960732948671
 20
18.03799291317692
 10
13.48633558239445
 20
16.74421549547907
 10
15.13108874286237
 20
15.27416621147038
 10
16.61655195315381
 20
13.64332075369264
 10
17.92708725325297
 20
11.86884756891986
 10
19.04889820681579
 20
9.969427120269756
 10
19.97017514079512
 20
7.965055231821584
 10
20.68121946975497
 20
5.876832585996268
 10
21.17454579607075
 20
3.726742589729267
 10
21.44496071117319
 20
1.537419947911987
 10
21.48961746826927
 20
-0.6680876195947126
 10
21.30804595098245
 20
-2.866562008891485
 10
20.90215762242246
 20
-5.034859156660313
 10
20.27622540258417
 20
-7.150152685334755
 10
19.43683868591278
 20
-9.19017420388775
 10
18.39283397258018
 20
-11.13344773451152
 10
17.15520184373998
 20
-12.95951579730276
 10
15.73697126006315
 20
-14.64915477288521
 10
14.1530724015818
 20
-16.18457727577656
 10
12.42017949277108
 20
-17.54961940804837
 10
10.5565352675014
 20
-18.72991092199848
 10
8.581758921776105
 20
-19.71302650047717
 10
6.516639575999262
 20
-20.48861656228939
 10
4.382917421064442
 20
-21.04851621564163
 10
2.203054852211401
 20
-21.38683121264454
 10
0.0000000000000098
 20
-21.49999999999998
 10
-45.0
 20
-21.5
 10
-46.30660579084567
 20
-21.43152369210342
 10
-47.59889613522199
 20
-21.22684500917257
 10
-48.86271242968684
 20
-20.88820645368942
 10
-50.0842080384475
 20
-20.41931822053251
 10
-51.25
 20
-19.82531754730548
 10
-52.34731565365591
 20
-19.11271242968684
 10
-53.36413257948573
 20
-18.28931031846743
 10
-54.28931031846743
 20
-17.36413257948573
 10
-55.11271242968684
 20
-16.34731565365591
 10
-55.82531754730548
 20
-15.25
 10
-56.41931822053251
 20
-14.0842080384475
 10
-56.88820645368942
 20
-12.86271242968684
 10
-57.22684500917256
 20
-11.59889613522199
 10
-57.43152369210341
 20
-10.30660579084567
 10
-57.49999999999999
 20
-8.999999999999998
 10
-57.43152369210341
 20
-7.693394209154331
 10
-57.22684500917256
 20
-6.401103864778008
 10
-56.88820645368941
 20
-5.137287570313158
 10
-56.4193182205325
 20
-3.915791961552499
 10
-55.82531754730547
 20
-2.750000000000004
 10
-55.11271242968684
 20
-1.652684346344091
 10
-54.28931031846742
 20
-0.6358674205142787
 10
-53.36413257948573
 20
0.2893103184674199
 10
-52.34731565365591
 20
1.112712429686836
 10
-51.25
 20
1.825317547305474
 10
-50.0842080384475
 20
2.419318220532501
 10
-48.86271242968684
 20
2.888206453689408
 10
-47.59889613522199
 20
3.226845009172559
 10
-46.30660579084567
 20
3.431523692103404
 97
        1
330
CF
 92
        3
 72
     0
 73
     1
 93
      121
 10
-22.65263850183254
 20
8.179245283018805
 10
-22.65466036923431
 20
8.257101010216655
 10
-22.66072052084255
 20
8.334746852138688
 10
-22.67080261955995
 20
8.411973489322685
 10
-22.68487948583087
 20
8.488572732408286
 10
-22.70291317091259
 20
8.564338083378699
 10
-22.72485505917844
 20
8.639065292242842
 10
-22.75064599917693
 20
8.712552907657212
 10
-22.78021646309361
 20
8.784602820003089
 10
-22.81348673418574
 20
8.855020795455046
 10
-22.85036712168458
 20
8.923616999600991
 10
-22.89075820258577
 20
8.990206509202201
 10
-22.93455108967627
 20
9.054609810713655
 10
-22.98162772507495
 20
9.116653284220831
 10
-23.03186119849582
 20
9.176169671488296
 10
-23.0851160893757
 20
9.232998526858331
 10
-23.14124883194411
 20
9.286986649784069
 10
-23.20010810225124
 20
9.337988497831073
 10
-23.26153522611049
 20
9.385866579034017
 10
-23.32536460685614
 20
9.430491822550708
 10
-23.39142417176256
 20
9.471743926614264
 10
-23.45953583592195
 20
9.509511682845405
 10
-23.52951598232971
 20
9.54369327605058
 10
-23.60117595688346
 20
9.574196558697738
 10
-23.67432257696111
 20
9.600939299329765
 10
-23.74875865220709
 20
9.623849404245973
 10
-23.82428351612265
 20
9.642865111853961
 10
-23.90069356702729
 20
9.65793515916795
 10
-23.9777828169329
 20
9.669018920004731
 10
-24.05534344685093
 20
9.67608651450467
 10
-24.13316636703565
 20
9.67911888968253
 10
-24.21104178065315
 20
9.678107870790946
 10
-24.28875974935651
 20
9.673056183358106
 10
-24.36611075924247
 20
9.663977445840203
 10
-24.44288628566384
 20
9.650896132908484
 10
-24.51887935537513
 20
9.633847509469868
 10
-24.59388510449579
 20
9.612877535598992
 10
-24.66770133078703
 20
9.588042742637965
 10
-24.7401290387533
 20
9.559410080797882
 10
-24.81097297609897
 20
9.527056738672872
 10
-24.88004216009401
 20
9.49106993515331
 10
-24.94715039242964
 20
9.451546684299107
 10
-25.01211676117605
 20
9.408593533806945
 10
-25.07476612848899
 20
9.362326277776534
 10
-25.13492960275047
 20
9.31286964455019
 10
-25.19244499387062
 20
9.260356960467277
 10
-25.24715725052359
 20
9.204929790439964
 10
-25.29891887813842
 20
9.146737556319248
 10
-25.34759033651839
 20
9.085937134080073
 10
-25.39304041601673
 20
9.02269243091142
 10
-25.43514659125457
 20
8.957173943351519
 10
-25.47379535142774
 20
8.889558297659317
 10
-25.50888250631181
 20
8.820027773661314
 10
-25.54031346714056
 20
8.748769813357374
 10
-25.56800350160051
 20
8.675976515610238
 10
-25.59187796225429
 20
8.601844118280948
 10
-25.61187248777691
 20
8.52657246920627
 10
-25.62793317646256
 20
8.450364487444261
 10
-25.64001673153404
 20
8.373425616240358
 10
-25.64809057786321
 20
8.295963269188714
 10
-25.65213294978781
 20
8.218186271081821
 10
-25.65213294978781
 20
8.140304294955786
 10
-25.64809057786321
 20
8.062527296848895
 10
-25.64001673153404
 20
7.985064949797251
 10
-25.62793317646256
 20
7.908126078593348
 10
-25.61187248777691
 20
7.831918096831338
 10
-25.59187796225428
 20
7.75664644775666
 10
-25.56800350160051
 20
7.68251405042737
 10
-25.54031346714056
 20
7.609720752680234
 10
-25.50888250631181
 20
7.538462792376295
 10
-25.47379535142774
 20
7.468932268378291
 10
-25.43514659125457
 20
7.40131662268609
 10
-25.39304041601673
 20
7.335798135126189
 10
-25.34759033651839
 20
7.272553431957537
 10
-25.29891887813841
 20
7.21175300971836
 10
-25.24715725052358
 20
7.153560775597645
 10
-25.19244499387062
 20
7.098133605570332
 10
-25.13492960275047
 20
7.045620921487419
 10
-25.07476612848899
 20
6.996164288261078
 10
-25.01211676117604
 20
6.949897032230666
 10
-24.94715039242964
 20
6.906943881738504
 10
-24.88004216009401
 20
6.8674206308843
 10
-24.81097297609897
 20
6.83143382736474
 10
-24.7401290387533
 20
6.79908048523973
 10
-24.66770133078702
 20
6.770447823399646
 10
-24.59388510449578
 20
6.74561303043862
 10
-24.51887935537513
 20
6.724643056567743
 10
-24.44288628566384
 20
6.707594433129128
 10
-24.36611075924247
 20
6.69451312019741
 10
-24.28875974935651
 20
6.685434382679507
 10
-24.21104178065315
 20
6.680382695246667
 10
-24.13316636703565
 20
6.679371676355084
 10
-24.05534344685093
 20
6.682404051532942
 10
-23.9777828169329
 20
6.689471646032882
 10
-23.90069356702729
 20
6.700555406869662
 10
-23.82428351612265
 20
6.715625454183652
 10
-23.74875865220709
 20
6.73464116179164
 10
-23.67432257696111
 20
6.757551266707848
 10
-23.60117595688346
 20
6.784294007339875
 10
-23.52951598232971
 20
6.814797289987031
 10
-23.45953583592195
 20
6.848978883192207
 10
-23.39142417176256
 20
6.886746639423348
 10
-23.32536460685614
 20
6.927998743486904
 10
-23.2615352261105
 20
6.972623987003595
 10
-23.20010810225124
 20
7.020502068206538
 10
-23.14124883194412
 20
7.071503916253542
 10
-23.0851160893757
 20
7.12549203917928
 10
-23.03186119849583
 20
7.182320894549316
 10
-22.98162772507495
 20
7.24183728181678
 10
-22.93455108967627
 20
7.303880755323958
 10
-22.89075820258577
 20
7.368284056835411
 10
-22.85036712168458
 20
7.43487356643662
 10
-22.81348673418575
 20
7.503469770582567
 10
-22.78021646309362
 20
7.573887746034522
 10
-22.75064599917694
 20
7.6459376583804
 10
-22.72485505917844
 20
7.719425273794769
 10
-22.70291317091259
 20
7.794152482658912
 10
-22.68487948583087
 20
7.869917833629324
 10
-22.67080261955996
 20
7.946517076714925
 10
-22.66072052084255
 20
8.023743713898924
 10
-22.65466036923431
 20
8.101389555820957
 97
        1
330
D0
 92
        3
 72
     0
 73
     1
 93
      121
 10
20.65975344979499
 20
16.82717586949984
 10
20.65773158239323
 20
16.90503159669769
 10
20.65167143078498
 20
16.98267743861972
 10
20.64158933206758
 20
17.05990407580372
 10
20.62751246579666
 20
17.13650331888932
 10
20.60947878071494
 20
17.21226866985974
 10
20.58753689244909
 20
17.28699587872388
 10
20.5617459524506
 20
17.36048349413825
 10
20.53217548853392
 20
17.43253340648413
 10
20.49890521744179
 20
17.50295138193608
 10
20.46202482994295
 20
17.57154758608203
 10
20.42163374904176
 20
17.63813709568323
 10
20.37784086195127
 20
17.70254039719469
 10
20.33076422655258
 20
17.76458387070187
 10
20.28053075313171
 20
17.82410025796933
 10
20.22727586225183
 20
17.88092911333937
 10
20.17114311968342
 20
17.9349172362651
 10
20.1122838493763
 20
17.98591908431211
 10
20.05085672551704
 20
18.03379716551505
 10
19.98702734477139
 20
18.07842240903175
 10
19.92096777986497
 20
18.1196745130953
 10
19.85285611570558
 20
18.15744226932644
 10
19.78287596929782
 20
18.19162386253162
 10
19.71121599474407
 20
18.22212714517877
 10
19.63806937466642
 20
18.2488698858108
 10
19.56363329942044
 20
18.27177999072701
 10
19.48810843550488
 20
18.290795698335
 10
19.41169838460024
 20
18.30586574564899
 10
19.33460913469463
 20
18.31694950648577
 10
19.25704850477661
 20
18.32401710098571
 10
19.17922558459189
 20
18.32704947616356
 10
19.10135017097438
 20
18.32603845727198
 10
19.02363220227102
 20
18.32098676983914
 10
18.94628119238506
 20
18.31190803232124
 10
18.86950566596369
 20
18.29882671938952
 10
18.79351259625241
 20
18.28177809595091
 10
18.71850684713175
 20
18.26080812208003
 10
18.64469062084051
 20
18.235973329119
 10
18.57226291287424
 20
18.20734066727892
 10
18.50141897552856
 20
18.17498732515391
 10
18.43234979153352
 20
18.13900052163435
 10
18.36524155919789
 20
18.09947727078014
 10
18.30027519045149
 20
18.05652412028798
 10
18.23762582313854
 20
18.01025686425757
 10
18.17746234887706
 20
17.96080023103123
 10
18.11994695775691
 20
17.90828754694831
 10
18.06523470110395
 20
17.852860376921
 10
18.01347307348912
 20
17.79466814280028
 10
17.96480161510914
 20
17.73386772056111
 10
17.9193515356108
 20
17.67062301739245
 10
17.87724536037296
 20
17.60510452983256
 10
17.8385966001998
 20
17.53748888414035
 10
17.80350944531572
 20
17.46795836014235
 10
17.77207848448697
 20
17.39670039983841
 10
17.74438845002702
 20
17.32390710209127
 10
17.72051398937325
 20
17.24977470476198
 10
17.70051946385062
 20
17.17450305568731
 10
17.68445877516497
 20
17.0982950739253
 10
17.67237522009349
 20
17.02135620272139
 10
17.66430137376432
 20
16.94389385566975
 10
17.66025900183972
 20
16.86611685756286
 10
17.66025900183973
 20
16.78823488143682
 10
17.66430137376432
 20
16.71045788332993
 10
17.67237522009349
 20
16.63299553627829
 10
17.68445877516497
 20
16.55605666507438
 10
17.70051946385062
 20
16.47984868331237
 10
17.72051398937325
 20
16.4045770342377
 10
17.74438845002702
 20
16.33044463690841
 10
17.77207848448697
 20
16.25765133916127
 10
17.80350944531572
 20
16.18639337885733
 10
17.8385966001998
 20
16.11686285485933
 10
17.87724536037296
 20
16.04924720916712
 10
17.9193515356108
 20
15.98372872160722
 10
17.96480161510914
 20
15.92048401843857
 10
18.01347307348912
 20
15.8596835961994
 10
18.06523470110395
 20
15.80149136207868
 10
18.11994695775691
 20
15.74606419205137
 10
18.17746234887706
 20
15.69355150796845
 10
18.23762582313854
 20
15.64409487474211
 10
18.30027519045149
 20
15.5978276187117
 10
18.36524155919789
 20
15.55487446821954
 10
18.43234979153352
 20
15.51535121736534
 10
18.50141897552856
 20
15.47936441384577
 10
18.57226291287424
 20
15.44701107172077
 10
18.64469062084051
 20
15.41837840988068
 10
18.71850684713175
 20
15.39354361691965
 10
18.79351259625241
 20
15.37257364304878
 10
18.86950566596369
 20
15.35552501961016
 10
18.94628119238507
 20
15.34244370667844
 10
19.02363220227102
 20
15.33336496916054
 10
19.10135017097438
 20
15.3283132817277
 10
19.17922558459189
 20
15.32730226283612
 10
19.25704850477661
 20
15.33033463801398
 10
19.33460913469463
 20
15.33740223251392
 10
19.41169838460024
 20
15.3484859933507
 10
19.48810843550488
 20
15.36355604066469
 10
19.56363329942044
 20
15.38257174827267
 10
19.63806937466642
 20
15.40548185318888
 10
19.71121599474407
 20
15.43222459382091
 10
19.78287596929782
 20
15.46272787646807
 10
19.85285611570558
 20
15.49690946967324
 10
19.92096777986497
 20
15.53467722590438
 10
19.98702734477139
 20
15.57592932996794
 10
20.05085672551704
 20
15.62055457348463
 10
20.1122838493763
 20
15.66843265468757
 10
20.17114311968341
 20
15.71943450273458
 10
20.22727586225183
 20
15.77342262566031
 10
20.28053075313171
 20
15.83025148103035
 10
20.33076422655258
 20
15.88976786829781
 10
20.37784086195126
 20
15.95181134180499
 10
20.42163374904176
 20
16.01621464331645
 10
20.46202482994295
 20
16.08280415291766
 10
20.49890521744178
 20
16.1514003570636
 10
20.53217548853392
 20
16.22181833251556
 10
20.5617459524506
 20
16.29386824486144
 10
20.58753689244909
 20
16.3673558602758
 10
20.60947878071494
 20
16.44208306913995
 10
20.62751246579666
 20
16.51784842011036
 10
20.64158933206757
 20
16.59444766319596
 10
20.65167143078498
 20
16.67167430037996
 10
20.65773158239322
 20
16.74932014230199
 97
        1
330
D1
 92
        3
 72
     0
 73
     1
 93
      121
 10
6.492885052037962
 20
-25.00642115251877
 10
6.490863184636196
 20
-24.92856542532092
 10
6.484803033027954
 20
-24.85091958339888
 10
6.474720934310549
 20
-24.77369294621489
 10
6.460644068039634
 20
-24.69709370312929
 10
6.442610382957917
 20
-24.62132835215887
 10
6.420668494692066
 20
-24.54660114329473
 10
6.394877554693571
 20
-24.47311352788036
 10
6.365307090776891
 20
-24.40106361553448
 10
6.332036819684757
 20
-24.33064564008253
 10
6.295156432185927
 20
-24.26204943593658
 10
6.254765351284734
 20
-24.19545992633537
 10
6.210972464194237
 20
-24.13105662482392
 10
6.163895828795553
 20
-24.06901315131674
 10
6.113662355374681
 20
-24.00949676404928
 10
6.060407464494801
 20
-23.95266790867924
 10
6.004274721926389
 20
-23.8986797857535
 10
5.945415451619269
 20
-23.8476779377065
 10
5.883988327760011
 20
-23.79979985650355
 10
5.820158947014367
 20
-23.75517461298686
 10
5.754099382107944
 20
-23.71392250892331
 10
5.685987717948556
 20
-23.67615475269217
 10
5.61600757154079
 20
-23.64197315948699
 10
5.544347596987041
 20
-23.61146987683984
 10
5.471200976909389
 20
-23.58472713620781
 10
5.396764901663413
 20
-23.5618170312916
 10
5.321240037747853
 20
-23.54280132368361
 10
5.244829986843208
 20
-23.52773127636962
 10
5.1677407369376
 20
-23.51664751553284
 10
5.090180107019576
 20
-23.5095799210329
 10
5.012357186834858
 20
-23.50654754585505
 10
4.934481773217355
 20
-23.50755856474663
 10
4.85676380451399
 20
-23.51261025217947
 10
4.779412794628034
 20
-23.52168898969737
 10
4.702637268206662
 20
-23.53477030262909
 10
4.626644198495375
 20
-23.5518189260677
 10
4.551638449374718
 20
-23.57278889993858
 10
4.477822223083479
 20
-23.59762369289961
 10
4.405394515117207
 20
-23.62625635473969
 10
4.334550577771529
 20
-23.6586096968647
 10
4.265481393776487
 20
-23.69459650038426
 10
4.198373161440864
 20
-23.73411975123847
 10
4.133406792694459
 20
-23.77707290173063
 10
4.070757425381511
 20
-23.82334015776104
 10
4.010593951120035
 20
-23.87279679098738
 10
3.953078559999879
 20
-23.9253094750703
 10
3.898366303346918
 20
-23.98073664509761
 10
3.846604675732089
 20
-24.03892887921833
 10
3.797933217352109
 20
-24.0997293014575
 10
3.75248313785377
 20
-24.16297400462615
 10
3.710376962615933
 20
-24.22849249218605
 10
3.671728202442767
 20
-24.29610813787826
 10
3.636641047558688
 20
-24.36563866187626
 10
3.605210086729938
 20
-24.4368966221802
 10
3.577520052269991
 20
-24.50968991992734
 10
3.553645591616218
 20
-24.58382231725663
 10
3.533651066093593
 20
-24.6590939663313
 10
3.51759037740794
 20
-24.73530194809331
 10
3.505506822336464
 20
-24.81224081929722
 10
3.497432976007294
 20
-24.88970316634886
 10
3.493390604082696
 20
-24.96748016445575
 10
3.493390604082696
 20
-25.04536214058179
 10
3.497432976007294
 20
-25.12313913868868
 10
3.505506822336465
 20
-25.20060148574032
 10
3.517590377407941
 20
-25.27754035694423
 10
3.533651066093594
 20
-25.35374833870624
 10
3.553645591616219
 20
-25.42901998778091
 10
3.577520052269992
 20
-25.5031523851102
 10
3.605210086729939
 20
-25.57594568285734
 10
3.636641047558689
 20
-25.64720364316128
 10
3.671728202442768
 20
-25.71673416715928
 10
3.710376962615935
 20
-25.78434981285148
 10
3.752483137853772
 20
-25.84986830041138
 10
3.797933217352111
 20
-25.91311300358004
 10
3.846604675732091
 20
-25.97391342581921
 10
3.89836630334692
 20
-26.03210565993993
 10
3.953078559999881
 20
-26.08753282996724
 10
4.010593951120037
 20
-26.14004551405015
 10
4.070757425381514
 20
-26.1895021472765
 10
4.133406792694461
 20
-26.23576940330691
 10
4.198373161440866
 20
-26.27872255379907
 10
4.265481393776489
 20
-26.31824580465327
 10
4.33455057777153
 20
-26.35423260817283
 10
4.405394515117209
 20
-26.38658595029784
 10
4.47782222308348
 20
-26.41521861213793
 10
4.551638449374718
 20
-26.44005340509895
 10
4.626644198495376
 20
-26.46102337896983
 10
4.702637268206663
 20
-26.47807200240845
 10
4.779412794628035
 20
-26.49115331534016
 10
4.856763804513991
 20
-26.50023205285807
 10
4.934481773217356
 20
-26.50528374029091
 10
5.012357186834858
 20
-26.50629475918249
 10
5.090180107019576
 20
-26.50326238400463
 10
5.167740736937601
 20
-26.49619478950469
 10
5.244829986843209
 20
-26.48511102866791
 10
5.321240037747853
 20
-26.47004098135392
 10
5.396764901663412
 20
-26.45102527374593
 10
5.471200976909389
 20
-26.42811516882973
 10
5.544347596987041
 20
-26.4013724281977
 10
5.61600757154079
 20
-26.37086914555054
 10
5.685987717948555
 20
-26.33668755234537
 10
5.754099382107944
 20
-26.29891979611423
 10
5.820158947014366
 20
-26.25766769205067
 10
5.883988327760009
 20
-26.21304244853398
 10
5.945415451619267
 20
-26.16516436733103
 10
6.004274721926386
 20
-26.11416251928403
 10
6.0604074644948
 20
-26.06017439635829
 10
6.113662355374679
 20
-26.00334554098826
 10
6.163895828795551
 20
-25.94382915372079
 10
6.210972464194233
 20
-25.88178568021362
 10
6.25476535128473
 20
-25.81738237870216
 10
6.295156432185924
 20
-25.75079286910095
 10
6.332036819684753
 20
-25.68219666495501
 10
6.365307090776888
 20
-25.61177868950305
 10
6.394877554693567
 20
-25.53972877715717
 10
6.420668494692062
 20
-25.4662411617428
 10
6.442610382957913
 20
-25.39151395287866
 10
6.460644068039629
 20
-25.31574860190825
 10
6.474720934310545
 20
-25.23914935882265
 10
6.48480303302795
 20
-25.16192272163865
 10
6.490863184636192
 20
-25.08427687971662
 97
        1
330
D2
 92
        3
 72
     0
 73
     1
 93
      121
 10
-60.00000000000001
 20
-9.0
 10
-60.00202186740177
 20
-8.92214427280215
 10
-60.00808201901002
 20
-8.844498430880117
 10
-60.01816411772742
 20
-8.76727179369612
 10
-60.03224098399834
 20
-8.690672550610518
 10
-60.05027466908005
 20
-8.614907199640106
 10
-60.0722165573459
 20
-8.540179990775963
 10
-60.0980074973444
 20
-8.466692375361593
 10
-60.12757796126107
 20
-8.394642463015716
 10
-60.16084823235321
 20
-8.32422448756376
 10
-60.19772861985204
 20
-8.255628283417813
 10
-60.23811970075324
 20
-8.189038773816604
 10
-60.28191258784373
 20
-8.12463547230515
 10
-60.32898922324242
 20
-8.062591998797974
 10
-60.37922269666329
 20
-8.003075611530509
 10
-60.43247758754317
 20
-7.946246756160472
 10
-60.48861033011158
 20
-7.892258633234735
 10
-60.5474696004187
 20
-7.84125678518773
 10
-60.60889672427796
 20
-7.793378703984787
 10
-60.6727261050236
 20
-7.748753460468096
 10
-60.73878566993002
 20
-7.70750135640454
 10
-60.80689733408941
 20
-7.6697336001734
 10
-60.87687748049718
 20
-7.635552006968224
 10
-60.94853745505092
 20
-7.605048724321067
 10
-61.02168407512858
 20
-7.57830598368904
 10
-61.09612015037455
 20
-7.555395878772831
 10
-61.17164501429011
 20
-7.536380171164843
 10
-61.24805506519476
 20
-7.521310123850855
 10
-61.32514431510037
 20
-7.510226363014073
 10
-61.40270494501839
 20
-7.503158768514135
 10
-61.48052786520311
 20
-7.500126393336275
 10
-61.55840327882061
 20
-7.501137412227859
 10
-61.63612124752398
 20
-7.506189099660698
 10
-61.71347225740993
 20
-7.515267837178603
 10
-61.7902477838313
 20
-7.528349150110321
 10
-61.86624085354259
 20
-7.545397773548936
 10
-61.94124660266325
 20
-7.566367747419813
 10
-62.01506282895449
 20
-7.59120254038084
 10
-62.08749053692076
 20
-7.619835202220924
 10
-62.15833447426644
 20
-7.652188544345933
 10
-62.22740365826148
 20
-7.688175347865493
 10
-62.29451189059711
 20
-7.727698598719698
 10
-62.35947825934351
 20
-7.770651749211861
 10
-62.42212762665645
 20
-7.816919005242271
 10
-62.48229110091793
 20
-7.866375638468615
 10
-62.53980649203809
 20
-7.918888322551527
 10
-62.59451874869105
 20
-7.974315492578841
 10
-62.64628037630588
 20
-8.032507726699556
 10
-62.69495183468586
 20
-8.093308148938732
 10
-62.7404019141842
 20
-8.156552852107385
 10
-62.78250808942204
 20
-8.222071339667286
 10
-62.82115684959521
 20
-8.289686985359488
 10
-62.85624400447928
 20
-8.35921750935749
 10
-62.88767496530803
 20
-8.430475469661431
 10
-62.91536499976798
 20
-8.503268767408567
 10
-62.93923946042175
 20
-8.577401164737857
 10
-62.95923398594437
 20
-8.652672813812535
 10
-62.97529467463003
 20
-8.728880795574543
 10
-62.98737822970151
 20
-8.805819666778447
 10
-62.99545207603067
 20
-8.88328201383009
 10
-62.99949444795527
 20
-8.961059011936984
 10
-62.99949444795527
 20
-9.038940988063018
 10
-62.99545207603067
 20
-9.11671798616991
 10
-62.98737822970151
 20
-9.194180333221553
 10
-62.97529467463003
 20
-9.271119204425457
 10
-62.95923398594437
 20
-9.347327186187467
 10
-62.93923946042175
 20
-9.422598835262145
 10
-62.91536499976797
 20
-9.496731232591435
 10
-62.88767496530803
 20
-9.56952453033857
 10
-62.85624400447928
 20
-9.64078249064251
 10
-62.8211568495952
 20
-9.710313014640514
 10
-62.78250808942204
 20
-9.777928660332716
 10
-62.7404019141842
 20
-9.843447147892615
 10
-62.69495183468586
 20
-9.906691851061268
 10
-62.64628037630588
 20
-9.967492273300444
 10
-62.59451874869105
 20
-10.02568450742116
 10
-62.53980649203809
 20
-10.08111167744847
 10
-62.48229110091793
 20
-10.13362436153139
 10
-62.42212762665645
 20
-10.18308099475773
 10
-62.3594782593435
 20
-10.22934825078814
 10
-62.2945118905971
 20
-10.2723014012803
 10
-62.22740365826148
 20
-10.3118246521345
 10
-62.15833447426644
 20
-10.34781145565407
 10
-62.08749053692076
 20
-10.38016479777907
 10
-62.01506282895449
 20
-10.40879745961916
 10
-61.94124660266325
 20
-10.43363225258019
 10
-61.86624085354259
 20
-10.45460222645106
 10
-61.7902477838313
 20
-10.47165084988968
 10
-61.71347225740993
 20
-10.48473216282139
 10
-61.63612124752398
 20
-10.4938109003393
 10
-61.55840327882061
 20
-10.49886258777214
 10
-61.48052786520311
 20
-10.49987360666372
 10
-61.40270494501839
 20
-10.49684123148586
 10
-61.32514431510037
 20
-10.48977363698592
 10
-61.24805506519476
 20
-10.47868987614914
 10
-61.17164501429011
 20
-10.46361982883515
 10
-61.09612015037455
 20
-10.44460412122717
 10
-61.02168407512858
 20
-10.42169401631096
 10
-60.94853745505092
 20
-10.39495127567893
 10
-60.87687748049718
 20
-10.36444799303177
 10
-60.80689733408941
 20
-10.3302663998266
 10
-60.73878566993002
 20
-10.29249864359546
 10
-60.6727261050236
 20
-10.2512465395319
 10
-60.60889672427796
 20
-10.20662129601521
 10
-60.5474696004187
 20
-10.15874321481227
 10
-60.48861033011158
 20
-10.10774136676526
 10
-60.43247758754317
 20
-10.05375324383952
 10
-60.37922269666329
 20
-9.99692438846949
 10
-60.32898922324242
 20
-9.937408001202025
 10
-60.28191258784373
 20
-9.875364527694847
 10
-60.23811970075324
 20
-9.810961226183393
 10
-60.19772861985204
 20
-9.744371716582185
 10
-60.16084823235322
 20
-9.675775512436237
 10
-60.12757796126108
 20
-9.605357536984283
 10
-60.0980074973444
 20
-9.533307624638406
 10
-60.07221655734591
 20
-9.459820009224035
 10
-60.05027466908005
 20
-9.385092800359892
 10
-60.03224098399834
 20
-9.30932744938948
 10
-60.01816411772742
 20
-9.232728206303879
 10
-60.00808201901002
 20
-9.155501569119881
 10
-60.00202186740178
 20
-9.077855727197848
 97
        1
330
D3
 92
        3
 72
     0
 73
     1
 93
      121
 10
-33.97372055837118
 20
-25.49999999999999
 10
-33.97574242577294
 20
-25.42214427280214
 10
-33.98180257738119
 20
-25.3444984308801
 10
-33.99188467609859
 20
-25.26727179369611
 10
-34.0059615423695
 20
-25.19067255061051
 10
-34.02399522745122
 20
-25.11490719964009
 10
-34.04593711571707
 20
-25.04017999077595
 10
-34.07172805571557
 20
-24.96669237536158
 10
-34.10129851963224
 20
-24.8946424630157
 10
-34.13456879072438
 20
-24.82422448756375
 10
-34.17144917822321
 20
-24.7556282834178
 10
-34.21184025912441
 20
-24.68903877381659
 10
-34.2556331462149
 20
-24.62463547230514
 10
-34.30270978161359
 20
-24.56259199879796
 10
-34.35294325503446
 20
-24.5030756115305
 10
-34.40619814591434
 20
-24.44624675616046
 10
-34.46233088848275
 20
-24.39225863323473
 10
-34.52119015878987
 20
-24.34125678518772
 10
-34.58261728264913
 20
-24.29337870398478
 10
-34.64644666339477
 20
-24.24875346046808
 10
-34.71250622830119
 20
-24.20750135640453
 10
-34.78061789246058
 20
-24.16973360017339
 10
-34.85059803886835
 20
-24.13555200696821
 10
-34.92225801342209
 20
-24.10504872432106
 10
-34.99540463349975
 20
-24.07830598368903
 10
-35.06984070874572
 20
-24.05539587877282
 10
-35.14536557266128
 20
-24.03638017116483
 10
-35.22177562356593
 20
-24.02131012385084
 10
-35.29886487347154
 20
-24.01022636301406
 10
-35.37642550338956
 20
-24.00315876851413
 10
-35.45424842357428
 20
-24.00012639333627
 10
-35.53212383719178
 20
-24.00113741222785
 10
-35.60984180589515
 20
-24.00618909966069
 10
-35.6871928157811
 20
-24.01526783717859
 10
-35.76396834220247
 20
-24.02834915011031
 10
-35.83996141191376
 20
-24.04539777354892
 10
-35.91496716103442
 20
-24.0663677474198
 10
-35.98878338732566
 20
-24.09120254038083
 10
-36.06121109529193
 20
-24.11983520222091
 10
-36.13205503263761
 20
-24.15218854434592
 10
-36.20112421663265
 20
-24.18817534786548
 10
-36.26823244896828
 20
-24.22769859871969
 10
-36.33319881771468
 20
-24.27065174921185
 10
-36.39584818502762
 20
-24.31691900524226
 10
-36.4560116592891
 20
-24.3663756384686
 10
-36.51352705040926
 20
-24.41888832255152
 10
-36.56823930706222
 20
-24.47431549257883
 10
-36.62000093467705
 20
-24.53250772669955
 10
-36.66867239305703
 20
-24.59330814893872
 10
-36.71412247255537
 20
-24.65655285210737
 10
-36.75622864779321
 20
-24.72207133966727
 10
-36.79487740796637
 20
-24.78968698535948
 10
-36.82996456285045
 20
-24.85921750935748
 10
-36.8613955236792
 20
-24.93047546966142
 10
-36.88908555813915
 20
-25.00326876740856
 10
-36.91296001879292
 20
-25.07740116473785
 10
-36.93295454431554
 20
-25.15267281381252
 10
-36.9490152330012
 20
-25.22888079557453
 10
-36.96109878807268
 20
-25.30581966677844
 10
-36.96917263440184
 20
-25.38328201383008
 10
-36.97321500632644
 20
-25.46105901193697
 10
-36.97321500632644
 20
-25.53894098806301
 10
-36.96917263440184
 20
-25.6167179861699
 10
-36.96109878807268
 20
-25.69418033322154
 10
-36.9490152330012
 20
-25.77111920442545
 10
-36.93295454431554
 20
-25.84732718618746
 10
-36.91296001879292
 20
-25.92259883526213
 10
-36.88908555813914
 20
-25.99673123259142
 10
-36.8613955236792
 20
-26.06952453033856
 10
-36.82996456285045
 20
-26.1407824906425
 10
-36.79487740796637
 20
-26.2103130146405
 10
-36.75622864779321
 20
-26.27792866033271
 10
-36.71412247255537
 20
-26.3434471478926
 10
-36.66867239305703
 20
-26.40669185106126
 10
-36.62000093467705
 20
-26.46749227330043
 10
-36.56823930706222
 20
-26.52568450742115
 10
-36.51352705040926
 20
-26.58111167744846
 10
-36.4560116592891
 20
-26.63362436153137
 10
-36.39584818502762
 20
-26.68308099475772
 10
-36.33319881771467
 20
-26.72934825078813
 10
-36.26823244896827
 20
-26.77230140128029
 10
-36.20112421663265
 20
-26.81182465213449
 10
-36.13205503263761
 20
-26.84781145565405
 10
-36.06121109529193
 20
-26.88016479777906
 10
-35.98878338732566
 20
-26.90879745961915
 10
-35.91496716103442
 20
-26.93363225258017
 10
-35.83996141191376
 20
-26.95460222645105
 10
-35.76396834220247
 20
-26.97165084988967
 10
-35.6871928157811
 20
-26.98473216282138
 10
-35.60984180589515
 20
-26.99381090033929
 10
-35.53212383719178
 20
-26.99886258777213
 10
-35.45424842357428
 20
-26.99987360666371
 10
-35.37642550338956
 20
-26.99684123148585
 10
-35.29886487347154
 20
-26.98977363698591
 10
-35.22177562356593
 20
-26.97868987614913
 10
-35.14536557266128
 20
-26.96361982883514
 10
-35.06984070874572
 20
-26.94460412122715
 10
-34.99540463349975
 20
-26.92169401631094
 10
-34.92225801342209
 20
-26.89495127567892
 10
-34.85059803886835
 20
-26.86444799303176
 10
-34.78061789246058
 20
-26.83026639982659
 10
-34.71250622830119
 20
-26.79249864359545
 10
-34.64644666339477
 20
-26.75124653953189
 10
-34.58261728264913
 20
-26.7066212960152
 10
-34.52119015878987
 20
-26.65874321481225
 10
-34.46233088848275
 20
-26.60774136676525
 10
-34.40619814591434
 20
-26.55375324383951
 10
-34.35294325503446
 20
-26.49692438846948
 10
-34.30270978161359
 20
-26.43740800120201
 10
-34.2556331462149
 20
-26.37536452769484
 10
-34.21184025912441
 20
-26.31096122618338
 10
-34.17144917822321
 20
-26.24437171658217
 10
-34.13456879072439
 20
-26.17577551243623
 10
-34.10129851963225
 20
-26.10535753698427
 10
-34.07172805571557
 20
-26.03330762463839
 10
-34.04593711571708
 20
-25.95982000922402
 10
-34.02399522745122
 20
-25.88509280035988
 10
-34.00596154236951
 20
-25.80932744938947
 10
-33.99188467609859
 20
-25.73272820630387
 10
-33.98180257738119
 20
-25.65550156911987
 10
-33.97574242577295
 20
-25.57785572719784
 97
        1
330
D4
 92
        3
 72
     0
 73
     1
 93
      191
 10
-45.00000153706031
 20
8.500000000000068
 10
-28.13975731264497
 20
8.500000000000012
 10
-28.0860269826416
 20
8.906194427759111
 10
-27.99102536221376
 20
9.304761302475134
 10
-27.85574926097908
 20
9.691518639754669
 10
-27.68161807071357
 20
10.06240836741173
 10
-27.47045887230702
 20
10.41353890500867
 10
-27.22448726501838
 20
10.74122599647346
 10
-26.94628411918123
 20
11.04203136735491
 10
-26.63876849628285
 20
11.31279880110247
 10
-26.3051670205544
 20
11.55068725583831
 10
-25.9489800234424
 20
11.75320067414226
 10
-25.5739448161926
 20
11.9182141730686
 10
-25.18399647591049
 20
12.04399633959487
 10
-24.78322655655288
 20
12.12922739756616
 10
-24.3758401580777
 20
12.17301305551753
 10
-23.96611180420629
 20
12.17489389007532
 10
-23.55834059175307
 20
12.13485016648166
 10
-22.23227502387816
 20
14.42137119911434
 10
-20.68502235402248
 20
16.56441517873759
 10
-18.9319760735723
 20
18.54266113452136
 10
-16.99057709786331
 20
20.33642765781559
 10
-14.88014024792772
 20
21.92786871088951
 10
-12.62166208890561
 20
23.30115117571426
 10
-10.23761203692036
 20
24.44261237637074
 10
-7.751708812679105
 20
25.34089600790477
 10
-5.188684465843161
 20
25.98706511928445
 10
-2.57403831787081
 20
26.37469102640157
 10
0.0662167286648196
 20
26.49991727052863
 10
2.705812990334743
 20
26.36149798591414
 10
5.318489337907205
 20
25.96081029479991
 10
7.878252466193573
 20
25.3018406065436
 10
10.35963549933455
 20
24.39114495715512
 10
12.73795135868366
 20
23.23778378382581
 10
14.98953837255145
 20
21.85323178337334
 10
17.09199568425906
 20
20.25126375141321
 10
17.45578867287316
 20
20.44608510281997
 10
17.83771831086689
 20
20.60238753130628
 10
18.23371941800543
 20
20.71850738608482
 10
18.6395770402408
 20
20.79320871138898
 10
19.05097131281273
 20
20.82569640173092
 10
19.46352343999758
 20
20.81562466484024
 10
19.87284230210619
 20
20.76310070220555
 10
20.27457119365552
 20
20.66868356804395
 10
20.66443419524255
 20
20.53337821884335
 10
21.03828168554784
 20
20.35862481681301
 10
21.39213450904836
 20
20.14628340109425
 10
21.72222632932759
 20
19.89861408988779
 10
22.02504371718289
 20
19.61825302422204
 10
22.29736354684078
 20
19.30818430941218
 10
22.53628730224242
 20
18.97170825285908
 10
22.73927192825023
 20
18.61240623625855
 10
22.90415689840192
 20
18.23410259611373
 10
23.02918721110819
 20
17.84082391828678
 10
23.1130320695274
 20
17.43675617985001
 10
23.15479904629249
 20
17.02620019440997
 10
23.15404358232366
 20
16.61352583513509
 10
23.11077371862347
 20
16.20312552272767
 10
23.02545001069005
 20
15.79936747340452
 10
22.89898062645946
 20
15.40654920450518
 10
22.73271167995359
 20
15.02885179260437
 10
22.52841290352039
 20
14.67029537099594
 10
22.28825881116807
 20
14.33469634022384
 10
23.60541132777799
 20
12.04302935504395
 10
24.68771552063122
 20
9.631547247063962
 10
25.52440363304873
 20
7.124241656292361
 10
26.10715152282516
 20
4.546057562800116
 10
26.43016147844484
 20
1.922645111136087
 10
26.49021990004373
 20
-0.7198955808817972
 10
26.28672927125389
 20
-3.355274090122932
 10
25.82171410384545
 20
-5.957271249432566
 10
25.09980079602307
 20
-8.500000000000398
 10
24.12817160476526
 20
-10.95816293961018
 10
22.91649319013195
 20
-13.30730400444367
 10
21.4768204424471
 20
-15.52405178047704
 10
19.82347654917216
 20
-17.58635202378443
 10
17.97291049467503
 20
-19.473687076423
 10
15.94353341061808
 20
-21.16727999494853
 10
13.75553540510164
 20
-22.6502813607036
 10
11.43068469291526
 20
-23.90793691331799
 10
8.99211102533335
 20
-24.92773433964902
 10
8.97893477054416
 20
-25.34019898521086
 10
8.923331825289615
 20
-25.74911096841477
 10
8.825894015842302
 20
-26.15011791451277
 10
8.687658450134377
 20
-26.53895158834021
 10
8.5100964789948
 20
-26.91147332452987
 10
8.295098035394801
 20
-27.2637180786119
 10
8.044951518391418
 20
-27.59193663012874
 10
7.762319435880283
 20
-27.8926354885638
 10
7.450210065411122
 20
-28.1626140773335
 10
7.111945434702445
 20
-28.39899880006375
 10
6.75112596266419
 20
-28.59927362655666
 10
6.371592137281985
 20
-28.76130687289668
 10
5.977383638255725
 20
-28.88337389065412
 10
5.572696339482657
 20
-28.96417542368717
 10
5.16183764904166
 20
-29.00285143715601
 10
4.749180662030724
 20
-28.99899027155618
 10
4.339117614245353
 20
-28.95263302433737
 10
3.936013132127336
 20
-28.86427311247063
 10
3.544157776581776
 20
-28.73485102061999
 10
3.167722375132409
 20
-28.56574429081781
 10
2.810713628494319
 20
-28.35875286019172
 10
2.476931464078525
 20
-28.11607990280537
 10
2.169928590348944
 20
-27.84030837952838
 10
1.892972682526794
 20
-27.53437354553404
 10
1.649011602130001
 20
-27.20153170804908
 10
1.440642020543653
 20
-26.84532556689166
 10
1.270081780585747
 20
-26.46954650670571
 10
0.0000039293882821
 20
-26.50000000000029
 10
-31.6007372121638
 20
-26.50000000000009
 10
-31.72184845797923
 20
-26.88688706905082
 10
-31.88149835670502
 20
-27.25952824753017
 10
-32.07804700914696
 20
-27.61409582259152
 10
-32.30947549779036
 20
-27.94694773066156
 10
-32.57340662481001
 20
-28.2546649681569
 10
-32.86712933028058
 20
-28.5340867109628
 10
-33.1876265397669
 20
-28.78234278193209
 10
-33.53160615524843
 20
-28.99688313290322
 10
-33.89553487104344
 20
-29.1755040384026
 10
-34.27567446738146
 20
-29.31637073197353
 10
-34.66812020882139
 20
-29.41803625261497
 10
-35.06884095309324
 20
-29.47945630774229
 10
-35.47372055837122
 20
-29.49999999999999
 10
-35.8786001636492
 20
-29.47945630774229
 10
-36.27932090792105
 20
-29.41803625261496
 10
-36.67176664936098
 20
-29.31637073197351
 10
-37.05190624569898
 20
-29.17550403840258
 10
-37.41583496149401
 20
-28.9968831329032
 10
-37.75981457697552
 20
-28.78234278193205
 10
-38.08031178646184
 20
-28.53408671096276
 10
-38.3740344919324
 20
-28.25466496815686
 10
-38.63796561895206
 20
-27.94694773066152
 10
-38.86939410759545
 20
-27.61409582259148
 10
-39.06594276003739
 20
-27.25952824753012
 10
-39.22559265876317
 20
-26.88688706905077
 10
-39.34670390457859
 20
-26.50000000000004
 10
-45.00000000000011
 20
-26.5
 10
-46.80383896529167
 20
-26.40678502731895
 10
-48.58846138202659
 20
-26.12813314140521
 10
-50.33485541822522
 20
-25.66701285973682
 10
-52.02441649418761
 20
-25.02833656110903
 10
-53.63914547968075
 20
-24.21890815337654
 10
-55.16184044118808
 20
-23.24735059047238
 10
-56.57627989651091
 20
-22.12401401087474
 10
-57.86739562448503
 20
-20.86086547613549
 10
-59.02143318884632
 20
-19.47136148410122
 10
-60.0260984661622
 20
-17.97030461496139
 10
-60.87068861684656
 20
-16.37368583729308
 10
-61.54620610400539
 20
-14.69851415403829
 10
-62.04545454545455
 20
-12.96263540321879
 10
-62.44777522236954
 20
-12.88609342757766
 10
-62.84016080990882
 20
-12.76881533158424
 10
-63.21849811140937
 20
-12.61203048728584
 10
-63.57882119189433
 20
-12.4173823977031
 10
-63.91735295113546
 20
-12.18691146874786
 10
-64.23054471724812
 20
-11.92303362059151
 10
-64.51511344577764
 20
-11.62851496269107
 10
-64.76807613433617
 20
-11.30644279794282
 10
-64.98678109203728
 20
-10.96019325991375
 10
-65.16893573594527
 20
-10.5933959223946
 10
-65.31263062316197
 20
-10.20989575225622
 10
-65.4163594666336
 20
-9.813712804439904
 10
-65.47903492486145
 20
-9.40900008158045
 10
-65.5
 20
-8.999999999999991
 10
-65.47903492486145
 20
-8.590999918419534
 10
-65.4163594666336
 20
-8.18628719556008
 10
-65.31263062316197
 20
-7.790104247743766
 10
-65.16893573594527
 20
-7.406604077605383
 10
-64.98678109203728
 20
-7.039806740086231
 10
-64.76807613433617
 20
-6.693557202057162
 10
-64.51511344577764
 20
-6.371485037308911
 10
-64.23054471724812
 20
-6.076966379408468
 10
-63.91735295113546
 20
-5.813088531252127
 10
-63.57882119189433
 20
-5.582617602296887
 10
-63.21849811140937
 20
-5.387969512714146
 10
-62.84016080990882
 20
-5.231184668415742
 10
-62.44777522236954
 20
-5.113906572422326
 10
-62.04545454545455
 20
-5.037364596781203
 10
-61.54620610400539
 20
-3.301485845961688
 10
-60.87068861684657
 20
-1.626314162706878
 10
-60.0260984661622
 20
-0.0296953850385577
 10
-59.02143318884632
 20
1.471361484101289
 10
-57.86739562448503
 20
2.860865476135565
 10
-56.5762798965109
 20
4.124014010874827
 10
-55.16184044118805
 20
5.247350590472472
 10
-53.63914547968071
 20
6.218908153376633
 10
-52.02441649418756
 20
7.028336561109121
 10
-50.33485541822515
 20
7.667012859736907
 10
-48.58846138202651
 20
8.12813314140529
 10
-46.80383896529158
 20
8.406785027319021
 10
-45.0
 20
8.500000000000053
 97
        1
330
D5
 75
     0
 76
     0
 52
135.0000025044782
 41
0.5
 77
     0
 78
     1
 53
135.0000025044782
 43
0.0
 44
0.0
 45
-0.3535533751389633
 46
-0.3535534060475836
 79
     0
 98
        0
  0
ARC
  5
D7
330
1F
100
AcDbEntity
  8
Deckel_planen_oben
  6
Verdeckt
370
     0
100
AcDbCircle
 10
-35.4737205583712
 20
-25.49999999999999
 30
0.0
 40
5.999999999999996
100
AcDbArc
 50
256.2166392783416
 51
329.9999999999977
  0
LINE
  5
D8
330
1F
100
AcDbEntity
  8
Deckel_planen_oben
  6
Verdeckt
370
     0
100
AcDbLine
 10
0.0000040749707239
 20
-28.50000000000029
 30
0.0
 11
-30.27756813566468
 21
-28.50000000000019
 31
0.0
  0
ARC
  5
D9
330
1F
100
AcDbEntity
  8
Deckel_planen_oben
  6
Verdeckt
370
     0
100
AcDbCircle
 10
0.0000000000001556
 20
0.0000000000696261
 30
0.0
 40
28.50000000007021
100
AcDbArc
 50
270.0000081922321
 51
270.2306259176069
  0
ARC
  5
DA
330
1F
100
AcDbEntity
  8
Deckel_planen_oben
  6
Verdeckt
370
     0
100
AcDbCircle
 10
4.992885052037961
 20
-25.00642115251877
 30
0.0
 40
5.999999999999998
100
AcDbArc
 50
215.6071660695549
 51
346.9756877271875
  0
ARC
  5
DB
330
1F
100
AcDbEntity
  8
Deckel_planen_oben
  6
Verdeckt
370
     0
100
AcDbCircle
 10
0.0000000000004157
 20
-0.0000000000001368
 30
0.0
 40
28.50000000000045
100
AcDbArc
 50
292.3522278791356
 51
30.23062591760823
  0
ARC
  5
DC
330
1F
100
AcDbEntity
  8
Deckel_planen_oben
  6
Verdeckt
370
     0
100
AcDbCircle
 10
19.15975344979499
 20
16.82717586949984
 30
0.0
 40
5.999999999999996
100
AcDbArc
 50
335.607166069555
 51
106.9756877271904
  0
ARC
  5
DD
330
1F
100
AcDbEntity
  8
Deckel_planen_oben
  6
Verdeckt
370
     0
100
AcDbCircle
 10
0.0000000000004192
 20
-0.0000000000001421
 30
0.0
 40
28.50000000000044
100
AcDbArc
 50
52.35222787913712
 51
150.2306259176075
  0
ARC
  5
DE
330
1F
100
AcDbEntity
  8
Deckel_planen_oben
  6
Verdeckt
370
     0
100
AcDbCircle
 10
-24.15263850183254
 20
8.179245283018796
 30
0.0
 40
6.000000000000005
100
AcDbArc
 50
95.60716606955124
 51
157.2449369084309
  0
LINE
  5
DF
330
1F
100
AcDbEntity
  8
Deckel_planen_oben
  6
Verdeckt
370
     0
100
AcDbLine
 10
-31.44225313704385
 20
10.50000000000007
 30
0.0
 11
-29.68563927389188
 21
10.50000000000007
 31
0.0
  0
CIRCLE
  5
E2
102
{ACAD_XDICTIONARY
360
E0
102
}
330
1F
100
AcDbEntity
  8
Deckel_planen_oben
  6
Verdeckt
370
     0
100
AcDbCircle
 10
0.0000000000000142
 20
0.0000000000000142
 30
0.0
 40
21.50000000000001
  0
ARC
  5
E5
102
{ACAD_XDICTIONARY
360
E3
102
}
330
1F
100
AcDbEntity
  8
Deckel_planen_oben
  6
Verdeckt
370
     0
100
AcDbCircle
 10
-45.0
 20
-9.0
 30
0.0
 40
17.50000000000007
100
AcDbArc
 50
23.2827966992074
 51
359.3370682488331
  0
ARC
  5
E8
102
{ACAD_XDICTIONARY
360
E6
102
}
330
1F
100
AcDbEntity
  8
Deckel_planen_oben
  6
Verdeckt
370
     0
100
AcDbCircle
 10
0.0000000000000142
 20
0.0000000000000142
 30
0.0
 40
29.0
100
AcDbArc
 50
184.1185286068666
 51
198.5013363411739
  0
ARC
  5
EB
102
{ACAD_XDICTIONARY
360
E9
102
}
330
1F
100
AcDbEntity
  8
Deckel_planen_oben
  6
Verdeckt
370
     0
100
AcDbCircle
 10
-45.0
 20
-9.0
 30
0.0
 40
23.75
100
AcDbArc
 50
55.19030544717651
 51
289.9327324134425
  0
LWPOLYLINE
  5
EC
102
{ACAD_REACTORS
330
ED
330
ED
102
}
330
1F
100
AcDbEntity
  8
Querschnitt
  6
Durchgehend
370
   211
100
AcDbPolyline
 90
       13
 70
   129
 43
0.5
 10
-60.25
 20
-85.0
 10
-56.0
 20
-85.0
 10
-56.0
 20
-81.0
 10
-57.5
 20
-81.0
 10
-57.5
 20
-70.0
 10
-61.5
 20
-70.0
 10
-61.5
 20
-81.0
 10
-65.49999999999997
 20
-81.0
 10
-65.49999999999997
 20
-85.0
 10
-62.75
 20
-85.0
 10
-62.75000000000004
 20
-82.22168783648705
 10
-61.50000000000004
 20
-81.5
 10
-60.24999999999998
 20
-82.22168783648704
  0
HATCH
  5
ED
330
1F
100
AcDbEntity
  8
Querschnitt
  6
Durchgehend
100
AcDbHatch
 10
0.0
 20
0.0
 30
0.0
210
0.0
220
0.0
230
1.0
  2
_U
 70
     0
 71
     1
 91
        1
 92
        3
 72
     0
 73
     1
 93
       13
 10
-60.25
 20
-85.0
 10
-56.0
 20
-85.0
 10
-56.0
 20
-81.0
 10
-57.5
 20
-81.0
 10
-57.5
 20
-70.0
 10
-61.5
 20
-70.0
 10
-61.5
 20
-81.0
 10
-65.49999999999997
 20
-81.0
 10
-65.49999999999997
 20
-85.0
 10
-62.75
 20
-85.0
 10
-62.75000000000004
 20
-82.22168783648705
 10
-61.50000000000004
 20
-81.5
 10
-60.24999999999998
 20
-82.22168783648704
 97
        1
330
EC
 75
     0
 76
     0
 52
45.0
 41
0.5
 77
     0
 78
     1
 53
45.0
 43
0.0
 44
0.0
 45
-0.3535533905932737
 46
0.3535533905932738
 79
     0
 98
        0
  0
LWPOLYLINE
  5
F2
102
{ACAD_REACTORS
330
F3
330
F3
102
}
102
{ACAD_XDICTIONARY
360
F0
102
}
330
1F
100
AcDbEntity
  8
Querschnitt
  6
Durchgehend
370
   211
100
AcDbPolyline
 90
       12
 70
   129
 43
0.5
 10
-9.99999999999978
 20
-85.0
 10
-9.99999999999978
 20
-76.0
 10
-17.0
 20
-76.0
 10
-16.99999999999997
 20
-70.0
 10
-21.50000000000003
 20
-70.0
 10
-21.50000000000003
 20
-81.0
 10
-27.5011713740086
 20
-81.0
 10
-27.50117137400858
 20
-70.0
 10
-32.5
 20
-70.0
 10
-32.49999999999999
 20
-81.0
 10
-34.0
 20
-81.0
 10
-34.0
 20
-85.0
  0
HATCH
  5
F3
102
{ACAD_XDICTIONARY
360
EE
102
}
330
1F
100
AcDbEntity
  8
Querschnitt
  6
Durchgehend
100
AcDbHatch
 10
0.0
 20
0.0
 30
0.0
210
0.0
220
0.0
230
1.0
  2
_U
 70
     0
 71
     1
 91
        1
 92
        3
 72
     0
 73
     1
 93
       12
 10
-34.0
 20
-85.0
 10
-9.99999999999978
 20
-85.0
 10
-9.99999999999978
 20
-76.0
 10
-17.0
 20
-76.0
 10
-16.99999999999997
 20
-70.0
 10
-21.50000000000003
 20
-70.0
 10
-21.50000000000003
 20
-81.0
 10
-27.5011713740086
 20
-81.0
 10
-27.50117137400858
 20
-70.0
 10
-32.5
 20
-70.0
 10
-32.49999999999999
 20
-81.0
 10
-34.0
 20
-81.0
 97
        1
330
F2
 75
     0
 76
     0
 52
45.0
 41
0.5
 77
     0
 78
     1
 53
45.0
 43
0.0
 44
0.0
 45
-0.3535533905932737
 46
0.3535533905932738
 79
     0
 98
        0
  0
LWPOLYLINE
  5
F8
102
{ACAD_REACTORS
330
F9
330
F9
102
}
102
{ACAD_XDICTIONARY
360
F6
102
}
330
1F
100
AcDbEntity
  8
Querschnitt
  6
Durchgehend
370
   211
100
AcDbPolyline
 90
        8
 70
   129
 43
0.5
 10
10.0000000000002
 20
-85.0
 10
26.50000000000091
 20
-85.0
 10
26.50000000000088
 20
-81.0
 10
21.5
 20
-81.0
 10
21.5
 20
-70.0
 10
17.0
 20
-70.0
 10
17.0
 20
-76.0
 10
10.0000000000002
 20
-76.0
  0
HATCH
  5
F9
102
{ACAD_XDICTIONARY
360
F4
102
}
330
1F
100
AcDbEntity
  8
Querschnitt
  6
Durchgehend
100
AcDbHatch
 10
0.0
 20
0.0
 30
0.0
210
0.0
220
0.0
230
1.0
  2
_U
 70
     0
 71
     1
 91
        1
 92
        3
 72
     0
 73
     1
 93
        8
 10
10.0000000000002
 20
-85.0
 10
26.50000000000091
 20
-85.0
 10
26.50000000000088
 20
-81.0
 10
21.5
 20
-81.0
 10
21.5
 20
-70.0
 10
17.0
 20
-70.0
 10
17.0
 20
-76.0
 10
10.0000000000002
 20
-76.0
 97
        1
330
F8
 75
     0
 76
     0
 52
45.0
 41
0.5
 77
     0
 78
     1
 53
45.0
 43
0.0
 44
0.0
 45
-0.3535533905932737
 46
0.3535533905932738
 79
     0
 98
        0
  0
LWPOLYLINE
  5
FE
102
{ACAD_REACTORS
330
FF
330
FF
102
}
102
{ACAD_XDICTIONARY
360
FC
102
}
330
1F
100
AcDbEntity
  8
Querschnitt
  6
Durchgehend
370
   211
100
AcDbPolyline
 90
        4
 70
   129
 43
0.5
 10
-62.99999999999844
 20
-100.0
 10
-62.99999999999844
 20
-85.0
 10
-65.5
 20
-85.0
 10
-65.5
 20
-100.0
  0
HATCH
  5
FF
102
{ACAD_XDICTIONARY
360
FA
102
}
330
1F
100
AcDbEntity
  8
Querschnitt
  6
Durchgehend
100
AcDbHatch
 10
0.0
 20
0.0
 30
0.0
210
0.0
220
0.0
230
1.0
  2
_U
 70
     0
 71
     1
 91
        1
 92
        3
 72
     0
 73
     1
 93
        4
 10
-62.99999999999844
 20
-100.0
 10
-62.99999999999844
 20
-85.0
 10
-65.5
 20
-85.0
 10
-65.5
 20
-100.0
 97
        1
330
FE
 75
     0
 76
     0
 52
135.0000025044782
 41
0.5
 77
     0
 78
     1
 53
135.0000025044782
 43
0.0
 44
0.0
 45
-0.3535533751389633
 46
-0.3535534060475836
 79
     0
 98
        0
  0
LWPOLYLINE
  5
104
102
{ACAD_REACTORS
330
105
330
105
102
}
102
{ACAD_XDICTIONARY
360
102
102
}
330
1F
100
AcDbEntity
  8
Querschnitt
  6
Durchgehend
370
   211
100
AcDbPolyline
 90
        6
 70
   129
 43
0.5
 10
-59.99999999999839
 20
-85.0
 10
-59.99999999999838
 20
-100.0
 10
-17.0
 20
-100.0
 10
-17.0
 20
-96.0
 10
-57.5
 20
-96.0
 10
-57.5
 20
-85.0
  0
HATCH
  5
105
102
{ACAD_XDICTIONARY
360
100
102
}
330
1F
100
AcDbEntity
  8
Querschnitt
  6
Durchgehend
100
AcDbHatch
 10
0.0
 20
0.0
 30
0.0
210
0.0
220
0.0
230
1.0
  2
_U
 70
     0
 71
     1
 91
        1
 92
        3
 72
     0
 73
     1
 93
        6
 10
-57.5
 20
-85.0
 10
-59.99999999999839
 20
-85.0
 10
-59.99999999999838
 20
-100.0
 10
-17.0
 20
-100.0
 10
-17.0
 20
-96.0
 10
-57.5
 20
-96.0
 97
        1
330
104
 75
     0
 76
     0
 52
135.0000025044782
 41
0.5
 77
     0
 78
     1
 53
135.0000025044782
 43
0.0
 44
0.0
 45
-0.3535533751389633
 46
-0.3535534060475836
 79
     0
 98
        0
  0
LWPOLYLINE
  5
10A
102
{ACAD_REACTORS
330
10B
330
10B
102
}
102
{ACAD_XDICTIONARY
360
108
102
}
330
1F
100
AcDbEntity
  8
Querschnitt
  6
Durchgehend
370
   211
100
AcDbPolyline
 90
        6
 70
   129
 43
0.5
 10
17.0
 20
-100.0
 10
26.50000000000091
 20
-100.0
 10
26.50000000000088
 20
-85.0
 10
21.5
 20
-85.0
 10
21.5
 20
-96.0
 10
17.0
 20
-96.0
  0
HATCH
  5
10B
102
{ACAD_XDICTIONARY
360
106
102
}
330
1F
100
AcDbEntity
  8
Querschnitt
  6
Durchgehend
100
AcDbHatch
 10
0.0
 20
0.0
 30
0.0
210
0.0
220
0.0
230
1.0
  2
_U
 70
     0
 71
     1
 91
        1
 92
        3
 72
     0
 73
     1
 93
        6
 10
17.0
 20
-100.0
 10
26.50000000000091
 20
-100.0
 10
26.50000000000088
 20
-85.0
 10
21.5
 20
-85.0
 10
21.5
 20
-96.0
 10
17.0
 20
-96.0
 97
        1
330
10A
 75
     0
 76
     0
 52
135.0000025044782
 41
0.5
 77
     0
 78
     1
 53
135.0000025044782
 43
0.0
 44
0.0
 45
-0.3535533751389633
 46
-0.3535534060475836
 79
     0
 98
        0
  0
LWPOLYLINE
  5
10E
102
{ACAD_XDICTIONARY
360
10C
102
}
330
1F
100
AcDbEntity
  8
Querschnitt
  6
Durchgehend
370
   211
100
AcDbPolyline
 90
        2
 70
   128
 43
0.5
 10
-62.99999999999844
 20
-85.0
 10
-62.99999999999844
 20
-82.32168783648703
  0
LWPOLYLINE
  5
111
102
{ACAD_XDICTIONARY
360
10F
102
}
330
1F
100
AcDbEntity
  8
Querschnitt
  6
Durchgehend
370
   211
100
AcDbPolyline
 90
        2
 70
   128
 43
0.5
 10
-61.49999999999998
 20
-81.5
 10
-60.25
 20
-82.22168783648702
  0
LWPOLYLINE
  5
114
102
{ACAD_XDICTIONARY
360
112
102
}
330
1F
100
AcDbEntity
  8
Querschnitt
  6
Durchgehend
370
   211
100
AcDbPolyline
 90
        2
 70
   128
 43
0.5
 10
-60.25
 20
-85.0
 10
-60.25
 20
-82.22168783648702
  0
LWPOLYLINE
  5
117
102
{ACAD_XDICTIONARY
360
115
102
}
330
1F
100
AcDbEntity
  8
Querschnitt
  6
Durchgehend
370
   211
100
AcDbPolyline
 90
        2
 70
   128
 43
0.5
 10
-62.75000000000004
 20
-82.22168783648705
 10
-61.50000000000004
 20
-81.5
  0
LWPOLYLINE
  5
11A
102
{ACAD_XDICTIONARY
360
118
102
}
330
1F
100
AcDbEntity
  8
Querschnitt
  6
Durchgehend
370
   211
100
AcDbPolyline
 90
        2
 70
   128
 43
0.5
 10
-62.75
 20
-85.0
 10
-62.75000000000004
 20
-82.22168783648705
  0
LWPOLYLINE
  5
11D
102
{ACAD_XDICTIONARY
360
11B
102
}
330
1F
100
AcDbEntity
  8
Querschnitt
  6
Durchgehend
370
   211
100
AcDbPolyline
 90
        2
 70
   128
 43
0.5
 10
-62.75000000000004
 20
-82.22168783648705
 10
-60.25
 20
-82.22168783648702
  0
LWPOLYLINE
  5
120
102
{ACAD_XDICTIONARY
360
11E
102
}
330
1F
100
AcDbEntity
  8
Querschnitt
  6
Durchgehend
370
   211
100
AcDbPolyline
 90
        2
 70
   128
 43
0.5
 10
-62.99999999999844
 20
-82.32168783648703
 10
-59.99999999999839
 20
-82.32168783648703
  0
LWPOLYLINE
  5
123
102
{ACAD_XDICTIONARY
360
121
102
}
330
1F
100
AcDbEntity
  8
Querschnitt
  6
Durchgehend
370
   211
100
AcDbPolyline
 90
        2
 70
   128
 43
0.5
 10
-59.99999999999839
 20
-85.0
 10
-59.99999999999839
 20
-82.321687836487
  0
LWPOLYLINE
  5
126
102
{ACAD_XDICTIONARY
360
124
102
}
330
1F
100
AcDbEntity
  8
Querschnitt
  6
Durchgehend
370
   211
100
AcDbPolyline
 90
        2
 70
   128
 43
0.5
 10
-62.99999999999844
 20
-100.0
 10
-59.99999999999838
 20
-100.0
  0
LWPOLYLINE
  5
129
102
{ACAD_XDICTIONARY
360
127
102
}
330
1F
100
AcDbEntity
  8
Querschnitt
  6
Durchgehend
370
   211
100
AcDbPolyline
 90
        2
 70
   128
 43
0.5
 10
-17.0
 20
-100.0
 10
17.0
 20
-100.0
  0
LWPOLYLINE
  5
12C
102
{ACAD_XDICTIONARY
360
12A
102
}
330
1F
100
AcDbEntity
  8
Querschnitt
  6
Durchgehend
370
   211
100
AcDbPolyline
 90
        2
 70
   128
 43
0.5
 10
17.0
 20
-96.0
 10
-17.0
 20
-96.0
  0
LWPOLYLINE
  5
12F
102
{ACAD_XDICTIONARY
360
12D
102
}
330
1F
100
AcDbEntity
  8
Querschnitt
  6
Durchgehend
370
   211
100
AcDbPolyline
 90
        2
 70
   128
 43
0.5
 10
-9.999999999999773
 20
-85.0
 10
10.00000000000023
 20
-85.0
  0
LWPOLYLINE
  5
132
102
{ACAD_XDICTIONARY
360
130
102
}
330
1F
100
AcDbEntity
  8
Querschnitt
  6
Durchgehend
370
   211
100
AcDbPolyline
 90
        2
 70
   128
 43
0.5
 10
-9.99999999999978
 20
-76.0
 10
10.0000000000002
 20
-76.0
  0
LWPOLYLINE
  5
135
102
{ACAD_XDICTIONARY
360
133
102
}
330
1F
100
AcDbEntity
  8
Querschnitt
  6
Durchgehend
370
   211
100
AcDbPolyline
 90
        2
 70
   128
 43
0.5
 10
17.0
 20
-70.0
 10
-16.99999999999997
 20
-70.0
  0
LWPOLYLINE
  5
138
102
{ACAD_XDICTIONARY
360
136
102
}
330
1F
100
AcDbEntity
  8
Querschnitt
  6
Durchgehend
370
   211
100
AcDbPolyline
 90
        2
 70
   128
 43
0.5
 10
-56.0
 20
-81.0
 10
-34.0
 20
-81.0
  0
LWPOLYLINE
  5
13B
102
{ACAD_XDICTIONARY
360
139
102
}
330
1F
100
AcDbEntity
  8
Querschnitt
  6
Durchgehend
370
   211
100
AcDbPolyline
 90
        2
 70
   128
 43
0.5
 10
-34.0
 20
-85.0
 10
-56.0
 20
-85.0
  0
LWPOLYLINE
  5
13E
102
{ACAD_XDICTIONARY
360
13C
102
}
330
1F
100
AcDbEntity
  8
Querschnitt
  6
Durchgehend
370
   211
100
AcDbPolyline
 90
        2
 70
   128
 43
0.5
 10
-32.5
 20
-70.0
 10
-57.5
 20
-70.0
  0
LWPOLYLINE
  5
141
102
{ACAD_XDICTIONARY
360
13F
102
}
330
1F
100
AcDbEntity
  8
Mittel- und Schnittlinien
  6
Strichpunkt
 48
10.0
370
   211
100
AcDbPolyline
 90
        2
 70
   128
 43
0.5
 10
0.0000000000002309
 20
-105.0
 10
0.0000000000002328
 20
-65.00000000000001
  0
LWPOLYLINE
  5
144
102
{ACAD_XDICTIONARY
360
142
102
}
330
1F
100
AcDbEntity
  8
Mittel- und Schnittlinien
  6
Strichpunkt
 48
10.0
370
   211
100
AcDbPolyline
 90
        2
 70
   128
 43
0.5
 10
-45.0
 20
-89.0
 10
-45.0
 20
-65.0
  0
CIRCLE
  5
147
102
{ACAD_XDICTIONARY
360
145
102
}
330
1F
100
AcDbEntity
  8
Grundplatte_Stepcraft
  6
Durchgehend
370
     0
100
AcDbCircle
 10
0.0
 20
0.0
 30
0.0
 40
21.5
  0
ARC
  5
14A
102
{ACAD_XDICTIONARY
360
148
102
}
330
1F
100
AcDbEntity
  8
Grundplatte_Stepcraft
  6
Durchgehend
370
     0
100
AcDbCircle
 10
0.0
 20
0.0
 30
0.0
 40
28.8
100
AcDbArc
 50
107.7915905730077
 51
252.2084094269923
  0
LINE
  5
14D
102
{ACAD_XDICTIONARY
360
14B
102
}
330
1F
100
AcDbEntity
  8
Grundplatte_Stepcraft
  6
Durchgehend
370
     0
100
AcDbLine
 10
-8.8
 20
27.42261840160415
 30
0.0
 11
-8.800000000000011
 21
37.5
 31
0.0
  0
LINE
  5
150
102
{ACAD_XDICTIONARY
360
14E
102
}
330
1F
100
AcDbEntity
  8
Grundplatte_Stepcraft
  6
Durchgehend
370
     0
100
AcDbLine
 10
-8.8
 20
-27.42261840160418
 30
0.0
 11
-8.800000000000011
 21
-37.5
 31
0.0
  0
LINE
  5
153
102
{ACAD_XDICTIONARY
360
151
102
}
330
1F
100
AcDbEntity
  8
Grundplatte_Stepcraft
  6
Durchgehend
370
     0
100
AcDbLine
 10
0.0
 20
-37.5
 30
0.0
 11
0.0000000000000005
 21
-28.79999999999998
 31
0.0
  0
LINE
  5
156
102
{ACAD_XDICTIONARY
360
154
102
}
330
1F
100
AcDbEntity
  8
Grundplatte_Stepcraft
  6
Durchgehend
370
     0
100
AcDbLine
 10
0.0000000000000004
 20
-28.79999999999998
 30
0.0
 11
-0.0000000000000007
 21
-21.5
 31
0.0
  0
LWPOLYLINE
  5
157
330
1F
100
AcDbEntity
  8
Innenraum
  6
Durchgehend
370
     0
100
AcDbPolyline
 90
        5
 70
   129
 43
0.0
 10
-45.0
 20
3.5
 10
-24.37211521390788
 20
3.5
 42
0.3292444222876858
 10
-20.54903831760861
 20
6.323529411764705
 42
-1.981712066892119
 10
0.0000000000000013
 20
-21.5
 10
-45.0
 20
-21.5
 42
-1.0
  0
CIRCLE
  5
15A
102
{ACAD_XDICTIONARY
360
158
102
}
330
1F
100
AcDbEntity
  8
Bohrungen
  6
Durchgehend
370
     0
100
AcDbCircle
 10
-24.15263850183254
 20
8.179245283018805
 30
0.0
 40
1.5
  0
CIRCLE
  5
15D
102
{ACAD_XDICTIONARY
360
15B
102
}
330
1F
100
AcDbEntity
  8
Bohrungen
  6
Durchgehend
370
     0
100
AcDbCircle
 10
19.15975344979499
 20
16.82717586949984
 30
0.0
 40
1.5
  0
CIRCLE
  5
160
102
{ACAD_XDICTIONARY
360
15E
102
}
330
1F
100
AcDbEntity
  8
Bohrungen
  6
Durchgehend
370
     0
100
AcDbCircle
 10
4.992885052037962
 20
-25.00642115251877
 30
0.0
 40
1.5
  0
CIRCLE
  5
163
102
{ACAD_XDICTIONARY
360
161
102
}
330
1F
100
AcDbEntity
  8
Bohrungen
  6
Durchgehend
370
     0
100
AcDbCircle
 10
-61.50000000000001
 20
-9.0
 30
0.0
 40
1.5
  0
CIRCLE
  5
166
102
{ACAD_XDICTIONARY
360
164
102
}
330
1F
100
AcDbEntity
  8
Deckel_Innen_durch
  6
Durchgehend
370
     0
100
AcDbCircle
 10
0.0000000000002274
 20
0.0
 30
0.0
 40
10.0
  0
CIRCLE
  5
169
102
{ACAD_XDICTIONARY
360
167
102
}
330
1F
100
AcDbEntity
  8
Deckel_Innen_Schlauch
  6
Durchgehend
370
     0
100
AcDbCircle
 10
-45.0
 20
-9.0
 30
0.0
 40
12.5
  0
ARC
  5
16C
102
{ACAD_XDICTIONARY
360
16A
102
}
330
1F
100
AcDbEntity
  8
Deckel_Aussen_oben
  6
Durchgehend
370
     0
100
AcDbCircle
 10
-45.0
 20
-9.0
 30
0.0
 40
17.50000000000007
100
AcDbArc
 50
23.2827966992074
 51
359.3370682488331
  0
CIRCLE
  5
16F
102
{ACAD_XDICTIONARY
360
16D
102
}
330
1F
100
AcDbEntity
  8
Deckel_Aussen_oben
  6
Durchgehend
370
     0
100
AcDbCircle
 10
0.0000000000000142
 20
0.0000000000000142
 30
0.0
 40
21.50000000000001
  0
CIRCLE
  5
172
102
{ACAD_XDICTIONARY
360
170
102
}
330
1F
100
AcDbEntity
  8
Deckel_Innen_durch
  6
Durchgehend
370
     0
100
AcDbCircle
 10
-45.0
 20
-9.0
 30
0.0
 40
11.0
  0
ARC
  5
175
102
{ACAD_XDICTIONARY
360
173
102
}
330
1F
100
AcDbEntity
  8
Deckel_Aussen_oben
  6
Durchgehend
370
     0
100
AcDbCircle
 10
0.0000000000000142
 20
0.0000000000000142
 30
0.0
 40
29.0
100
AcDbArc
 50
184.1185286068666
 51
198.5013363411739
  0
CIRCLE
  5
178
102
{ACAD_XDICTIONARY
360
176
102
}
330
1F
100
AcDbEntity
  8
Bohrungen
  6
Durchgehend
370
     0
100
AcDbCircle
 10
-35.47372055837118
 20
-25.49999999999999
 30
0.0
 40
1.5
  0
LWPOLYLINE
  5
179
330
1F
100
AcDbEntity
  8
Aussenkontur
  6
Durchgehend
370
     0
100
AcDbPolyline
 90
       14
 70
   128
 43
0.0
 10
-45.00000153706031
 20
8.500000000000068
 10
-28.13975731264497
 20
8.500000000000012
 42
-0.4345266010501019
 10
-23.55834059175307
 20
12.13485016648166
 42
-0.481866033965209
 10
17.09199568425906
 20
20.25126375141319
 42
-0.8366600265339641
 10
22.28825881116807
 20
14.33469634022384
 42
-0.48186603396522
 10
8.992111025333342
 20
-24.92773433964901
 42
-0.8366600265339363
 10
1.270081780585743
 20
-26.46954650670571
 42
-0.0119870325384497
 10
0.0000039293882823
 20
-26.50000000000029
 10
-31.6007372121638
 20
-26.50000000000009
 42
-0.7745966692414692
 10
-39.34670390457859
 20
-26.50000000000004
 10
-45.00000000000011
 20
-26.5
 42
-0.3487880608295473
 10
-62.04545454545455
 20
-12.96263540321878
 42
-0.8717797887081358
 10
-62.04545454545455
 20
-5.037364596781204
 42
-0.3487880608295519
 10
-45.0
 20
8.50000000000007
  0
LWPOLYLINE
  5
17C
102
{ACAD_XDICTIONARY
360
17A
102
}
330
1F
100
AcDbEntity
  8
Querschnitt
  6
Durchgehend
370
   211
100
AcDbPolyline
 90
        3
 70
     1
 10
21.5
 20
80.0
 40
0.5
 41
0.5
 42
0.4142135623731
 10
0.0
 20
101.5
 40
0.5
 41
0.5
 42
2.414213562373
 10
21.5
 20
80.0
 40
0.5
 41
0.5
  0
LWPOLYLINE
  5
17F
102
{ACAD_XDICTIONARY
360
17D
102
}
330
1F
100
AcDbEntity
  8
Querschnitt
  6
Durchgehend
370
   211
100
AcDbPolyline
 90
        3
 70
     1
 10
17.0
 20
80.0
 40
0.5
 41
0.5
 42
0.4142135623731
 10
0.0
 20
97.0
 40
0.5
 41
0.5
 42
2.414213562373
 10
17.0
 20
80.0
 40
0.5
 41
0.5
  0
LWPOLYLINE
  5
182
102
{ACAD_XDICTIONARY
360
180
102
}
330
1F
100
AcDbEntity
  8
Querschnitt
  6
Durchgehend
370
   211
100
AcDbPolyline
 90
        3
 70
     1
 10
10.00000000000023
 20
80.0
 40
0.5
 41
0.5
 42
0.4142135623731
 10
0.0000000000002274
 20
90.0
 40
0.5
 41
0.5
 42
2.414213562373
 10
10.00000000000023
 20
80.0
 40
0.5
 41
0.5
  0
LWPOLYLINE
  5
185
102
{ACAD_XDICTIONARY
360
183
102
}
330
1F
100
AcDbEntity
  8
Querschnitt
  6
Durchgehend
370
   211
100
AcDbPolyline
 90
        3
 70
     1
 10
-32.5
 20
71.0
 40
0.5
 41
0.5
 42
0.4142135623731
 10
-45.0
 20
83.5
 40
0.5
 41
0.5
 42
2.414213562373
 10
-32.5
 20
71.0
 40
0.5
 41
0.5
  0
LWPOLYLINE
  5
188
102
{ACAD_XDICTIONARY
360
186
102
}
330
1F
100
AcDbEntity
  8
Querschnitt
  6
Durchgehend
370
   211
100
AcDbPolyline
 90
        2
 70
     0
 10
-28.92511067727337
 20
77.91722005303373
 40
0.5
 41
0.5
 42
9.536086466920999
 10
-27.5011713740086
 20
70.79752353670989
 40
0.5
 41
0.5
  0
LWPOLYLINE
  5
18B
102
{ACAD_XDICTIONARY
360
189
102
}
330
1F
100
AcDbEntity
  8
Querschnitt
  6
Durchgehend
370
   211
100
AcDbPolyline
 90
        3
 70
     1
 10
21.50000000000002
 20
80.00000000000001
 40
0.5
 41
0.5
 42
0.4142135623731
 10
0.0000000000000142
 20
101.5
 40
0.5
 41
0.5
 42
2.414213562373
 10
21.50000000000002
 20
80.00000000000001
 40
0.5
 41
0.5
  0
LWPOLYLINE
  5
18E
102
{ACAD_XDICTIONARY
360
18C
102
}
330
1F
100
AcDbEntity
  8
Querschnitt
  6
Durchgehend
370
   211
100
AcDbPolyline
 90
        3
 70
     1
 10
-34.0
 20
71.0
 40
0.5
 41
0.5
 42
0.4142135623731
 10
-45.0
 20
82.0
 40
0.5
 41
0.5
 42
2.414213562373
 10
-34.0
 20
71.0
 40
0.5
 41
0.5
  0
LWPOLYLINE
  5
191
102
{ACAD_XDICTIONARY
360
18F
102
}
330
1F
100
AcDbEntity
  8
Querschnitt
  6
Durchgehend
370
   211
100
AcDbPolyline
 90
        2
 70
     0
 10
-28.92511067727337
 20
77.91722005303372
 40
0.5
 41
0.5
 42
0.0628393552682445
 10
-27.5011713740086
 20
70.79752353670987
 40
0.5
 41
0.5
  0
LWPOLYLINE
  5
192
330
1F
100
AcDbEntity
  8
Querschnitt
  6
Durchgehend
370
   211
100
AcDbPolyline
 90
       14
 70
   128
 43
0.5
 10
-45.00000153706031
 20
88.50000000000007
 10
-28.13975731264497
 20
88.50000000000001
 42
-0.434526601050102
 10
-23.55834059175307
 20
92.13485016648166
 42
-0.481866033965209
 10
17.09199568425906
 20
100.2512637514132
 42
-0.836660026533963
 10
22.28825881116807
 20
94.33469634022384
 42
-0.48186603396522
 10
8.992111025333342
 20
55.07226566035099
 42
-0.8366600265339368
 10
1.270081780585743
 20
53.53045349329429
 42
-0.0119870325384497
 10
0.0000039293882823
 20
53.49999999999971
 10
-31.6007372121638
 20
53.49999999999991
 42
-0.77459666924147
 10
-39.34670390457859
 20
53.49999999999996
 10
-45.00000000000011
 20
53.5
 42
-0.3487880608295473
 10
-62.04545454545455
 20
67.03736459678122
 42
-0.8717797887081359
 10
-62.04545454545455
 20
74.9626354032188
 42
-0.3487880608295519
 10
-45.0
 20
88.50000000000007
  0
LWPOLYLINE
  5
195
102
{ACAD_XDICTIONARY
360
193
102
}
330
1F
100
AcDbEntity
  8
Mittel- und Schnittlinien
  6
Strichpunkt
 48
20.0
370
   211
100
AcDbPolyline
 90
        4
 70
   128
 43
1.0
 10
-75.49999999999997
 20
71.0
 10
-14.42220510185595
 20
71.0
 10
0.0000000000002274
 20
80.0
 10
36.50000000000088
 20
80.0
  0
LWPOLYLINE
  5
198
102
{ACAD_XDICTIONARY
360
196
102
}
330
1F
100
AcDbEntity
  8
Mittel- und Schnittlinien
  6
Strichpunkt
 48
20.0
370
   211
100
AcDbPolyline
 90
        2
 70
   128
 43
1.0
 10
-75.49999999999997
 20
-90.0
 10
36.50000000000088
 20
-90.0
  0
LWPOLYLINE
  5
19B
102
{ACAD_XDICTIONARY
360
199
102
}
330
1F
100
AcDbEntity
  8
Mittel- und Schnittlinien
  6
Strichpunkt
 48
10.0
370
   211
100
AcDbPolyline
 90
        2
 70
   128
 43
0.5
 10
0.0000000000002274
 20
-7.5
 10
0.0000000000002274
 20
7.5
  0
LWPOLYLINE
  5
19E
102
{ACAD_XDICTIONARY
360
19C
102
}
330
1F
100
AcDbEntity
  8
Mittel- und Schnittlinien
  6
Strichpunkt
 48
10.0
370
   211
100
AcDbPolyline
 90
        2
 70
   128
 43
0.5
 10
0.0000000000002274
 20
72.50000000000003
 10
0.0000000000002274
 20
87.50000000000003
  0
LWPOLYLINE
  5
1A1
102
{ACAD_XDICTIONARY
360
19F
102
}
330
1F
100
AcDbEntity
  8
Mittel- und Schnittlinien
  6
Strichpunkt
 48
10.0
370
   211
100
AcDbPolyline
 90
        2
 70
   128
 43
0.5
 10
7.500000000000227
 20
-0.0000000000000005
 10
-7.499999999999773
 20
0.0000000000000005
  0
LWPOLYLINE
  5
1A4
102
{ACAD_XDICTIONARY
360
1A2
102
}
330
1F
100
AcDbEntity
  8
Mittel- und Schnittlinien
  6
Strichpunkt
 48
10.0
370
   211
100
AcDbPolyline
 90
        2
 70
   128
 43
0.5
 10
7.500000000000227
 20
80.01000000000003
 10
-7.499999999999773
 20
80.01000000000003
  0
LWPOLYLINE
  5
1A7
102
{ACAD_XDICTIONARY
360
1A5
102
}
330
1F
100
AcDbEntity
  8
Mittel- und Schnittlinien
  6
Strichpunkt
 48
10.0
370
   211
100
AcDbPolyline
 90
        2
 70
   128
 43
0.5
 10
-37.94753644925479
 20
71.0
 10
-52.94753644925479
 20
71.0
  0
LWPOLYLINE
  5
1AA
102
{ACAD_XDICTIONARY
360
1A8
102
}
330
1F
100
AcDbEntity
  8
Mittel- und Schnittlinien
  6
Strichpunkt
 48
10.0
370
   211
100
AcDbPolyline
 90
        2
 70
   128
 43
0.5
 10
-45.50999999999997
 20
63.0
 10
-45.50999999999997
 20
78.0
  0
LEADER
  5
1AD
102
{ACAD_XDICTIONARY
360
1AB
102
}
330
1F
100
AcDbEntity
  8
Bemassung_und_Text
  6
Durchgehend
 62
     7
370
    50
100
AcDbLeader
  3
Standard
 73
     0
 76
     5
 10
-71.49999999999997
 20
71.0
 30
0.0
 10
-71.49999999999997
 20
80.0
 30
0.0
 10
-71.49999999999997
 20
81.50000000000003
 30
0.0
 10
-74.69248258846079
 20
81.50000000000003
 30
0.0
 10
-76.49999999999997
 20
81.50000000000003
 30
0.0
340
1B0
1001
ACAD
1000
DSTYLE
1002
{
1070
    41
1040
5.0
1070
    77
1070
     0
1002
}
  0
MTEXT
  5
1B0
102
{ACAD_REACTORS
330
1AD
102
}
102
{ACAD_XDICTIONARY
360
1AE
102
}
330
1F
100
AcDbEntity
  8
Bemassung_und_Text
  6
Durchgehend
 62
     7
100
AcDbMText
 10
-71.43320524471079
 20
81.5
 30
0.0
 40
3.0
 41
0.0
 46
0.0
 71
     6
 72
     1
  1
\A1;A
  7
_TCW_TXTSTY_1
 73
     1
 44
1.0
  0
LWPOLYLINE
  5
1B3
102
{ACAD_XDICTIONARY
360
1B1
102
}
330
1F
100
AcDbEntity
  8
Bemassung_und_Text
  6
Durchgehend
370
   211
100
AcDbPolyline
 90
        2
 70
   128
 43
0.5
 10
-71.49999999999997
 20
75.5
 10
-71.49999999999997
 20
81.5
  0
LEADER
  5
1B6
102
{ACAD_XDICTIONARY
360
1B4
102
}
330
1F
100
AcDbEntity
  8
Bemassung_und_Text
  6
Durchgehend
 62
     7
370
    50
100
AcDbLeader
  3
Standard
 73
     0
 76
     5
 10
31.92220510185602
 20
80.0
 30
0.0
 10
31.92220510185602
 20
89.0
 30
0.0
 10
31.92220510185602
 20
90.50000000000003
 30
0.0
 10
28.7297225133952
 20
90.50000000000003
 30
0.0
 10
26.92220510185602
 20
90.50000000000003
 30
0.0
340
1B9
1001
ACAD
1000
DSTYLE
1002
{
1070
    41
1040
5.0
1070
    77
1070
     0
1002
}
  0
MTEXT
  5
1B9
102
{ACAD_REACTORS
330
1B6
102
}
102
{ACAD_XDICTIONARY
360
1B7
102
}
330
1F
100
AcDbEntity
  8
Bemassung_und_Text
  6
Durchgehend
 62
     7
100
AcDbMText
 10
31.9889998571452
 20
90.5
 30
0.0
 40
3.0
 41
0.0
 46
0.0
 71
     6
 72
     1
  1
\A1;A
  7
_TCW_TXTSTY_1
 73
     1
 44
1.0
  0
LWPOLYLINE
  5
1BC
102
{ACAD_XDICTIONARY
360
1BA
102
}
330
1F
100
AcDbEntity
  8
Bemassung_und_Text
  6
Durchgehend
370
   211
100
AcDbPolyline
 90
        2
 70
   128
 43
0.5
 10
31.92220510185602
 20
84.5
 10
31.92220510185602
 20
90.5
  0
LEADER
  5
1BF
102
{ACAD_XDICTIONARY
360
1BD
102
}
330
1F
100
AcDbEntity
  8
Bemassung_und_Text
  6
Durchgehend
 62
     7
370
    50
100
AcDbLeader
  3
Standard
 73
     0
 76
     5
 10
-75.49999999999997
 20
-90.5
 30
0.0
 10
-75.49999999999997
 20
-81.5
 30
0.0
 10
-75.49999999999997
 20
-79.99999999999997
 30
0.0
 10
-78.44345915096079
 20
-79.99999999999997
 30
0.0
 10
-80.49999999999997
 20
-79.99999999999997
 30
0.0
340
1C2
1001
ACAD
1000
DSTYLE
1002
{
1070
    41
1040
5.0
1070
    77
1070
     0
1002
}
  0
MTEXT
  5
1C2
102
{ACAD_REACTORS
330
1BF
102
}
102
{ACAD_XDICTIONARY
360
1C0
102
}
330
1F
100
AcDbEntity
  8
Bemassung_und_Text
  6
Durchgehend
 62
     7
100
AcDbMText
 10
-75.43320524471079
 20
-80.0
 30
0.0
 40
3.0
 41
0.0
 46
0.0
 71
     6
 72
     1
  1
\A1;B
  7
_TCW_TXTSTY_1
 73
     1
 44
1.0
  0
LWPOLYLINE
  5
1C5
102
{ACAD_XDICTIONARY
360
1C3
102
}
330
1F
100
AcDbEntity
  8
Bemassung_und_Text
  6
Durchgehend
370
   211
100
AcDbPolyline
 90
        2
 70
   128
 43
0.5
 10
-75.49999999999997
 20
-86.0
 10
-75.49999999999997
 20
-80.0
  0
LEADER
  5
1C8
102
{ACAD_XDICTIONARY
360
1C6
102
}
330
1F
100
AcDbEntity
  8
Bemassung_und_Text
  6
Durchgehend
 62
     7
370
    50
100
AcDbLeader
  3
Standard
 73
     0
 76
     5
 10
34.50000000000003
 20
-90.5
 30
0.0
 10
34.50000000000003
 20
-81.5
 30
0.0
 10
34.50000000000003
 20
-79.99999999999997
 30
0.0
 10
31.55654084903921
 20
-79.99999999999997
 30
0.0
 10
29.50000000000003
 20
-79.99999999999997
 30
0.0
340
1CB
1001
ACAD
1000
DSTYLE
1002
{
1070
    41
1040
5.0
1070
    77
1070
     0
1002
}
  0
MTEXT
  5
1CB
102
{ACAD_REACTORS
330
1C8
102
}
102
{ACAD_XDICTIONARY
360
1C9
102
}
330
1F
100
AcDbEntity
  8
Bemassung_und_Text
  6
Durchgehend
 62
     7
100
AcDbMText
 10
34.56679475528921
 20
-80.0
 30
0.0
 40
3.0
 41
0.0
 46
0.0
 71
     6
 72
     1
  1
\A1;B
  7
_TCW_TXTSTY_1
 73
     1
 44
1.0
  0
LWPOLYLINE
  5
1CE
102
{ACAD_XDICTIONARY
360
1CC
102
}
330
1F
100
AcDbEntity
  8
Bemassung_und_Text
  6
Durchgehend
370
   211
100
AcDbPolyline
 90
        2
 70
   128
 43
0.5
 10
34.50000000000003
 20
-86.0
 10
34.50000000000003
 20
-80.0
  0
TEXT
  5
1D1
102
{ACAD_XDICTIONARY
360
1CF
102
}
330
1F
100
AcDbEntity
  8
Bemassung_und_Text
  6
Durchgehend
 62
     7
100
AcDbText
 10
-37.95735735735735
 20
111.7499164900619
 30
0.0
 40
4.2
  1
Ansicht oben
  7
_TCW_TXTSTY_1
 72
     1
 11
-21.5
 21
111.7499164900619
 31
0.0
100
AcDbText
  0
TEXT
  5
1D4
102
{ACAD_XDICTIONARY
360
1D2
102
}
330
1F
100
AcDbEntity
  8
Bemassung_und_Text
  6
Durchgehend
 62
     7
100
AcDbText
 10
-36.23783783783784
 20
31.24991805099535
 30
0.0
 40
4.2
  1
Schnitt B-B
  7
_TCW_TXTSTY_1
 72
     1
 11
-21.5
 21
31.24991805099535
 31
0.0
100
AcDbText
  0
TEXT
  5
1D7
102
{ACAD_XDICTIONARY
360
1D5
102
}
330
1F
100
AcDbEntity
  8
Bemassung_und_Text
  6
Durchgehend
 62
     7
100
AcDbText
 10
-36.58258258258258
 20
-60.25
 30
0.0
 40
4.2
  1
Schnitt A-A
  7
_TCW_TXTSTY_1
 72
     1
 11
-21.5
 21
-60.25
 31
0.0
100
AcDbText
  0
LWPOLYLINE
  5
1DA
102
{ACAD_XDICTIONARY
360
1D8
102
}
330
1F
100
AcDbEntity
  8
Bemassung_und_Text
  6
Durchgehend
370
     0
100
AcDbPolyline
 90
        4
 70
   129
 43
0.0
 10
66.49076545472047
 20
137.3067668222257
 10
-113.5092345452795
 20
137.3067668222257
 10
-113.5092345452795
 20
-117.6932331777742
 10
66.49076545472047
 20
-117.6932331777742
  0
TEXT
  5
1DD
102
{ACAD_XDICTIONARY
360
1DB
102
}
330
1F
100
AcDbEntity
  8
Bemassung_und_Text
  6
Durchgehend
 62
     7
100
AcDbText
 10
-113.5092345452795
 20
131.7067668222257
 30
0.0
 40
4.2
  1
Absaugung für Stepcraft-CNC
  7
_TCW_TXTSTY_1
 11
-113.5092345452795
 21
135.9067668222257
 31
0.0
100
AcDbText
 73
     3
  0
TEXT
  5
1E0
102
{ACAD_XDICTIONARY
360
1DE
102
}
330
1F
100
AcDbEntity
  8
Bemassung_und_Text
  6
Durchgehend
 62
     7
100
AcDbText
 10
17.89016485411987
 20
-116.3505849740149
 30
0.0
 40
4.2
  1
www.DL1DOW.de
  7
_TCW_TXTSTY_1
 72
     2
 11
66.49076545472047
 21
-117.6932331777742
 31
0.0
100
AcDbText
 73
     1
  0
TEXT
  5
1E3
102
{ACAD_XDICTIONARY
360
1E1
102
}
330
1F
100
AcDbEntity
  8
Bemassung_und_Text
  6
Durchgehend
 62
     7
100
AcDbText
 10
-113.5092345452795
 20
-116.3505849740149
 30
0.0
 40
4.2
  1
Alle Gewinde M3
  7
_TCW_TXTSTY_1
 11
-113.5092345452795
 21
-117.6932331777742
 31
0.0
100
AcDbText
 73
     1
  0
XLINE
  5
1E6
102
{ACAD_XDICTIONARY
360
1E4
102
}
330
1F
100
AcDbEntity
  8
$CONSTRUCTION
100
AcDbXline
 10
-56.76093562950864
 20
71.0
 30
0.0
 11
1.0
 21
0.0
 31
0.0
  0
VIEWPORT
  5
1E7
330
1B
100
AcDbEntity
 67
     1
  8
0
100
AcDbViewport
 10
264.6134865
 20
187.100445
 30
0.0
 40
529.226973
 41
374.20089
 68
     1
 69
     1
 12
264.6134865
 22
187.100445
 13
0.0
 23
0.0
 14
5.0
 24
5.0
 15
5.0
 25
5.0
 16
0.0
 26
0.0
 36
1.0
 17
0.0
 27
0.0
 37
0.0
 42
50.0
 43
0.0
 44
0.0
 45
374.20089
 50
0.0
 51
0.0
 72
  1000
 90
    32800
  1

281
     0
 71
     1
 74
     0
110
0.0
120
0.0
130
0.0
111
1.0
121
0.0
131
0.0
112
0.0
122
1.0
132
0.0
 79
     0
146
0.0
170
     0
 61
     5
292
     1
282
     1
141
0.0
142
0.0
 63
   256
  0
ENDSEC
  0
SECTION
  2
OBJECTS
  0
DICTIONARY
  5
C
330
0
100
AcDbDictionary
281
     1
  3
ACAD_GROUP
350
D
  3
ACAD_LAYOUT
350
1A
  3
ACAD_MLEADERSTYLE
350
1E8
  3
ACAD_MLINESTYLE
350
17
  3
ACAD_PLOTSETTINGS
350
19
  3
ACAD_PLOTSTYLENAME
350
E
  3
ACAD_SCALELIST
350
3B
  3
ACAD_TABLESTYLE
350
7A
  3
ACAD_VISUALSTYLE
350
2A
  0
DICTIONARY
  5
7C
330
7E
100
AcDbDictionary
280
     1
281
     1
  3
TC_OPTIONAL_DATA
360
7D
  0
DICTIONARY
  5
7F
330
81
100
AcDbDictionary
280
     1
281
     1
  3
TC_OPTIONAL_DATA
360
80
  0
DICTIONARY
  5
82
330
84
100
AcDbDictionary
280
     1
281
     1
  3
TC_OPTIONAL_DATA
360
83
  0
DICTIONARY
  5
85
330
87
100
AcDbDictionary
280
     1
281
     1
  3
TC_OPTIONAL_DATA
360
86
  0
DICTIONARY
  5
89
330
8B
100
AcDbDictionary
280
     1
281
     1
  3
TC_OPTIONAL_DATA
360
8A
  0
DICTIONARY
  5
8C
330
8E
100
AcDbDictionary
280
     1
281
     1
  3
TC_OPTIONAL_DATA
360
8D
  0
DICTIONARY
  5
8F
330
91
100
AcDbDictionary
280
     1
281
     1
  3
TC_OPTIONAL_DATA
360
90
  0
DICTIONARY
  5
92
330
94
100
AcDbDictionary
280
     1
281
     1
  3
TC_OPTIONAL_DATA
360
93
  0
DICTIONARY
  5
95
330
97
100
AcDbDictionary
280
     1
281
     1
  3
TC_OPTIONAL_DATA
360
96
  0
DICTIONARY
  5
98
330
9A
100
AcDbDictionary
280
     1
281
     1
  3
TC_OPTIONAL_DATA
360
99
  0
DICTIONARY
  5
9B
330
9D
100
AcDbDictionary
280
     1
281
     1
  3
TC_OPTIONAL_DATA
360
9C
  0
DICTIONARY
  5
9E
330
A0
100
AcDbDictionary
280
     1
281
     1
  3
TC_OPTIONAL_DATA
360
9F
  0
DICTIONARY
  5
A1
330
A3
100
AcDbDictionary
280
     1
281
     1
  3
TC_OPTIONAL_DATA
360
A2
  0
DICTIONARY
  5
A4
330
A6
100
AcDbDictionary
280
     1
281
     1
  3
TC_OPTIONAL_DATA
360
A5
  0
DICTIONARY
  5
A7
330
A9
100
AcDbDictionary
280
     1
281
     1
  3
TC_OPTIONAL_DATA
360
A8
  0
DICTIONARY
  5
AA
330
AC
100
AcDbDictionary
280
     1
281
     1
  3
TC_OPTIONAL_DATA
360
AB
  0
DICTIONARY
  5
AD
330
AF
100
AcDbDictionary
280
     1
281
     1
  3
TC_OPTIONAL_DATA
360
AE
  0
DICTIONARY
  5
B0
330
B2
100
AcDbDictionary
280
     1
281
     1
  3
TC_OPTIONAL_DATA
360
B1
  0
DICTIONARY
  5
B3
330
B5
100
AcDbDictionary
280
     1
281
     1
  3
TC_OPTIONAL_DATA
360
B4
  0
DICTIONARY
  5
B6
330
B8
100
AcDbDictionary
280
     1
281
     1
  3
TC_OPTIONAL_DATA
360
B7
  0
DICTIONARY
  5
B9
330
BB
100
AcDbDictionary
280
     1
281
     1
  3
TC_OPTIONAL_DATA
360
BA
  0
DICTIONARY
  5
BC
330
BE
100
AcDbDictionary
280
     1
281
     1
  3
TC_OPTIONAL_DATA
360
BD
  0
DICTIONARY
  5
BF
330
C1
100
AcDbDictionary
280
     1
281
     1
  3
TC_OPTIONAL_DATA
360
C0
  0
DICTIONARY
  5
C2
330
C4
100
AcDbDictionary
280
     1
281
     1
  3
TC_OPTIONAL_DATA
360
C3
  0
DICTIONARY
  5
C5
330
C7
100
AcDbDictionary
280
     1
281
     1
  3
TC_OPTIONAL_DATA
360
C6
  0
DICTIONARY
  5
C8
330
CA
100
AcDbDictionary
280
     1
281
     1
  3
TC_OPTIONAL_DATA
360
C9
  0
DICTIONARY
  5
CB
330
CD
100
AcDbDictionary
280
     1
281
     1
  3
TC_OPTIONAL_DATA
360
CC
  0
DICTIONARY
  5
E0
330
E2
100
AcDbDictionary
280
     1
281
     1
  3
TC_OPTIONAL_DATA
360
E1
  0
DICTIONARY
  5
E3
330
E5
100
AcDbDictionary
280
     1
281
     1
  3
TC_OPTIONAL_DATA
360
E4
  0
DICTIONARY
  5
E6
330
E8
100
AcDbDictionary
280
     1
281
     1
  3
TC_OPTIONAL_DATA
360
E7
  0
DICTIONARY
  5
E9
330
EB
100
AcDbDictionary
280
     1
281
     1
  3
TC_OPTIONAL_DATA
360
EA
  0
DICTIONARY
  5
F0
330
F2
100
AcDbDictionary
280
     1
281
     1
  3
TC_OPTIONAL_DATA
360
F1
  0
DICTIONARY
  5
EE
330
F3
100
AcDbDictionary
280
     1
281
     1
  3
TC_OPTIONAL_DATA
360
EF
  0
DICTIONARY
  5
F6
330
F8
100
AcDbDictionary
280
     1
281
     1
  3
TC_OPTIONAL_DATA
360
F7
  0
DICTIONARY
  5
F4
330
F9
100
AcDbDictionary
280
     1
281
     1
  3
TC_OPTIONAL_DATA
360
F5
  0
DICTIONARY
  5
FC
330
FE
100
AcDbDictionary
280
     1
281
     1
  3
TC_OPTIONAL_DATA
360
FD
  0
DICTIONARY
  5
FA
330
FF
100
AcDbDictionary
280
     1
281
     1
  3
TC_OPTIONAL_DATA
360
FB
  0
DICTIONARY
  5
102
330
104
100
AcDbDictionary
280
     1
281
     1
  3
TC_OPTIONAL_DATA
360
103
  0
DICTIONARY
  5
100
330
105
100
AcDbDictionary
280
     1
281
     1
  3
TC_OPTIONAL_DATA
360
101
  0
DICTIONARY
  5
108
330
10A
100
AcDbDictionary
280
     1
281
     1
  3
TC_OPTIONAL_DATA
360
109
  0
DICTIONARY
  5
106
330
10B
100
AcDbDictionary
280
     1
281
     1
  3
TC_OPTIONAL_DATA
360
107
  0
DICTIONARY
  5
10C
330
10E
100
AcDbDictionary
280
     1
281
     1
  3
TC_OPTIONAL_DATA
360
10D
  0
DICTIONARY
  5
10F
330
111
100
AcDbDictionary
280
     1
281
     1
  3
TC_OPTIONAL_DATA
360
110
  0
DICTIONARY
  5
112
330
114
100
AcDbDictionary
280
     1
281
     1
  3
TC_OPTIONAL_DATA
360
113
  0
DICTIONARY
  5
115
330
117
100
AcDbDictionary
280
     1
281
     1
  3
TC_OPTIONAL_DATA
360
116
  0
DICTIONARY
  5
118
330
11A
100
AcDbDictionary
280
     1
281
     1
  3
TC_OPTIONAL_DATA
360
119
  0
DICTIONARY
  5
11B
330
11D
100
AcDbDictionary
280
     1
281
     1
  3
TC_OPTIONAL_DATA
360
11C
  0
DICTIONARY
  5
11E
330
120
100
AcDbDictionary
280
     1
281
     1
  3
TC_OPTIONAL_DATA
360
11F
  0
DICTIONARY
  5
121
330
123
100
AcDbDictionary
280
     1
281
     1
  3
TC_OPTIONAL_DATA
360
122
  0
DICTIONARY
  5
124
330
126
100
AcDbDictionary
280
     1
281
     1
  3
TC_OPTIONAL_DATA
360
125
  0
DICTIONARY
  5
127
330
129
100
AcDbDictionary
280
     1
281
     1
  3
TC_OPTIONAL_DATA
360
128
  0
DICTIONARY
  5
12A
330
12C
100
AcDbDictionary
280
     1
281
     1
  3
TC_OPTIONAL_DATA
360
12B
  0
DICTIONARY
  5
12D
330
12F
100
AcDbDictionary
280
     1
281
     1
  3
TC_OPTIONAL_DATA
360
12E
  0
DICTIONARY
  5
130
330
132
100
AcDbDictionary
280
     1
281
     1
  3
TC_OPTIONAL_DATA
360
131
  0
DICTIONARY
  5
133
330
135
100
AcDbDictionary
280
     1
281
     1
  3
TC_OPTIONAL_DATA
360
134
  0
DICTIONARY
  5
136
330
138
100
AcDbDictionary
280
     1
281
     1
  3
TC_OPTIONAL_DATA
360
137
  0
DICTIONARY
  5
139
330
13B
100
AcDbDictionary
280
     1
281
     1
  3
TC_OPTIONAL_DATA
360
13A
  0
DICTIONARY
  5
13C
330
13E
100
AcDbDictionary
280
     1
281
     1
  3
TC_OPTIONAL_DATA
360
13D
  0
DICTIONARY
  5
13F
330
141
100
AcDbDictionary
280
     1
281
     1
  3
TC_OPTIONAL_DATA
360
140
  0
DICTIONARY
  5
142
330
144
100
AcDbDictionary
280
     1
281
     1
  3
TC_OPTIONAL_DATA
360
143
  0
DICTIONARY
  5
145
330
147
100
AcDbDictionary
280
     1
281
     1
  3
TC_OPTIONAL_DATA
360
146
  0
DICTIONARY
  5
148
330
14A
100
AcDbDictionary
280
     1
281
     1
  3
TC_OPTIONAL_DATA
360
149
  0
DICTIONARY
  5
14B
330
14D
100
AcDbDictionary
280
     1
281
     1
  3
TC_OPTIONAL_DATA
360
14C
  0
DICTIONARY
  5
14E
330
150
100
AcDbDictionary
280
     1
281
     1
  3
TC_OPTIONAL_DATA
360
14F
  0
DICTIONARY
  5
151
330
153
100
AcDbDictionary
280
     1
281
     1
  3
TC_OPTIONAL_DATA
360
152
  0
DICTIONARY
  5
154
330
156
100
AcDbDictionary
280
     1
281
     1
  3
TC_OPTIONAL_DATA
360
155
  0
DICTIONARY
  5
158
330
15A
100
AcDbDictionary
280
     1
281
     1
  3
TC_OPTIONAL_DATA
360
159
  0
DICTIONARY
  5
15B
330
15D
100
AcDbDictionary
280
     1
281
     1
  3
TC_OPTIONAL_DATA
360
15C
  0
DICTIONARY
  5
15E
330
160
100
AcDbDictionary
280
     1
281
     1
  3
TC_OPTIONAL_DATA
360
15F
  0
DICTIONARY
  5
161
330
163
100
AcDbDictionary
280
     1
281
     1
  3
TC_OPTIONAL_DATA
360
162
  0
DICTIONARY
  5
164
330
166
100
AcDbDictionary
280
     1
281
     1
  3
TC_OPTIONAL_DATA
360
165
  0
DICTIONARY
  5
167
330
169
100
AcDbDictionary
280
     1
281
     1
  3
TC_OPTIONAL_DATA
360
168
  0
DICTIONARY
  5
16A
330
16C
100
AcDbDictionary
280
     1
281
     1
  3
TC_OPTIONAL_DATA
360
16B
  0
DICTIONARY
  5
16D
330
16F
100
AcDbDictionary
280
     1
281
     1
  3
TC_OPTIONAL_DATA
360
16E
  0
DICTIONARY
  5
170
330
172
100
AcDbDictionary
280
     1
281
     1
  3
TC_OPTIONAL_DATA
360
171
  0
DICTIONARY
  5
173
330
175
100
AcDbDictionary
280
     1
281
     1
  3
TC_OPTIONAL_DATA
360
174
  0
DICTIONARY
  5
176
330
178
100
AcDbDictionary
280
     1
281
     1
  3
TC_OPTIONAL_DATA
360
177
  0
DICTIONARY
  5
17A
330
17C
100
AcDbDictionary
280
     1
281
     1
  3
TC_OPTIONAL_DATA
360
17B
  0
DICTIONARY
  5
17D
330
17F
100
AcDbDictionary
280
     1
281
     1
  3
TC_OPTIONAL_DATA
360
17E
  0
DICTIONARY
  5
180
330
182
100
AcDbDictionary
280
     1
281
     1
  3
TC_OPTIONAL_DATA
360
181
  0
DICTIONARY
  5
183
330
185
100
AcDbDictionary
280
     1
281
     1
  3
TC_OPTIONAL_DATA
360
184
  0
DICTIONARY
  5
186
330
188
100
AcDbDictionary
280
     1
281
     1
  3
TC_OPTIONAL_DATA
360
187
  0
DICTIONARY
  5
189
330
18B
100
AcDbDictionary
280
     1
281
     1
  3
TC_OPTIONAL_DATA
360
18A
  0
DICTIONARY
  5
18C
330
18E
100
AcDbDictionary
280
     1
281
     1
  3
TC_OPTIONAL_DATA
360
18D
  0
DICTIONARY
  5
18F
330
191
100
AcDbDictionary
280
     1
281
     1
  3
TC_OPTIONAL_DATA
360
190
  0
DICTIONARY
  5
193
330
195
100
AcDbDictionary
280
     1
281
     1
  3
TC_OPTIONAL_DATA
360
194
  0
DICTIONARY
  5
196
330
198
100
AcDbDictionary
280
     1
281
     1
  3
TC_OPTIONAL_DATA
360
197
  0
DICTIONARY
  5
199
330
19B
100
AcDbDictionary
280
     1
281
     1
  3
TC_OPTIONAL_DATA
360
19A
  0
DICTIONARY
  5
19C
330
19E
100
AcDbDictionary
280
     1
281
     1
  3
TC_OPTIONAL_DATA
360
19D
  0
DICTIONARY
  5
19F
330
1A1
100
AcDbDictionary
280
     1
281
     1
  3
TC_OPTIONAL_DATA
360
1A0
  0
DICTIONARY
  5
1A2
330
1A4
100
AcDbDictionary
280
     1
281
     1
  3
TC_OPTIONAL_DATA
360
1A3
  0
DICTIONARY
  5
1A5
330
1A7
100
AcDbDictionary
280
     1
281
     1
  3
TC_OPTIONAL_DATA
360
1A6
  0
DICTIONARY
  5
1A8
330
1AA
100
AcDbDictionary
280
     1
281
     1
  3
TC_OPTIONAL_DATA
360
1A9
  0
DICTIONARY
  5
1AB
330
1AD
100
AcDbDictionary
280
     1
281
     1
  3
TC_OPTIONAL_DATA
360
1AC
  0
DICTIONARY
  5
1AE
330
1B0
100
AcDbDictionary
280
     1
281
     1
  3
TC_OPTIONAL_DATA
360
1AF
  0
DICTIONARY
  5
1B1
330
1B3
100
AcDbDictionary
280
     1
281
     1
  3
TC_OPTIONAL_DATA
360
1B2
  0
DICTIONARY
  5
1B4
330
1B6
100
AcDbDictionary
280
     1
281
     1
  3
TC_OPTIONAL_DATA
360
1B5
  0
DICTIONARY
  5
1B7
330
1B9
100
AcDbDictionary
280
     1
281
     1
  3
TC_OPTIONAL_DATA
360
1B8
  0
DICTIONARY
  5
1BA
330
1BC
100
AcDbDictionary
280
     1
281
     1
  3
TC_OPTIONAL_DATA
360
1BB
  0
DICTIONARY
  5
1BD
330
1BF
100
AcDbDictionary
280
     1
281
     1
  3
TC_OPTIONAL_DATA
360
1BE
  0
DICTIONARY
  5
1C0
330
1C2
100
AcDbDictionary
280
     1
281
     1
  3
TC_OPTIONAL_DATA
360
1C1
  0
DICTIONARY
  5
1C3
330
1C5
100
AcDbDictionary
280
     1
281
     1
  3
TC_OPTIONAL_DATA
360
1C4
  0
DICTIONARY
  5
1C6
330
1C8
100
AcDbDictionary
280
     1
281
     1
  3
TC_OPTIONAL_DATA
360
1C7
  0
DICTIONARY
  5
1C9
330
1CB
100
AcDbDictionary
280
     1
281
     1
  3
TC_OPTIONAL_DATA
360
1CA
  0
DICTIONARY
  5
1CC
330
1CE
100
AcDbDictionary
280
     1
281
     1
  3
TC_OPTIONAL_DATA
360
1CD
  0
DICTIONARY
  5
1CF
330
1D1
100
AcDbDictionary
280
     1
281
     1
  3
TC_OPTIONAL_DATA
360
1D0
  0
DICTIONARY
  5
1D2
330
1D4
100
AcDbDictionary
280
     1
281
     1
  3
TC_OPTIONAL_DATA
360
1D3
  0
DICTIONARY
  5
1D5
330
1D7
100
AcDbDictionary
280
     1
281
     1
  3
TC_OPTIONAL_DATA
360
1D6
  0
DICTIONARY
  5
1D8
330
1DA
100
AcDbDictionary
280
     1
281
     1
  3
TC_OPTIONAL_DATA
360
1D9
  0
DICTIONARY
  5
1DB
330
1DD
100
AcDbDictionary
280
     1
281
     1
  3
TC_OPTIONAL_DATA
360
1DC
  0
DICTIONARY
  5
1DE
330
1E0
100
AcDbDictionary
280
     1
281
     1
  3
TC_OPTIONAL_DATA
360
1DF
  0
DICTIONARY
  5
1E1
330
1E3
100
AcDbDictionary
280
     1
281
     1
  3
TC_OPTIONAL_DATA
360
1E2
  0
DICTIONARY
  5
1E4
330
1E6
100
AcDbDictionary
280
     1
281
     1
  3
TC_OPTIONAL_DATA
360
1E5
  0
DICTIONARY
  5
D
102
{ACAD_REACTORS
330
C
102
}
330
C
100
AcDbDictionary
281
     1
  0
DICTIONARY
  5
1A
102
{ACAD_REACTORS
330
C
102
}
330
C
100
AcDbDictionary
281
     1
  3
Model
350
22
  3
Papier 1
350
1E
  0
DICTIONARY
  5
1E8
102
{ACAD_REACTORS
330
C
102
}
330
C
100
AcDbDictionary
281
     1
  0
DICTIONARY
  5
17
102
{ACAD_REACTORS
330
C
102
}
330
C
100
AcDbDictionary
281
     1
  3
Standard
350
18
  0
DICTIONARY
  5
19
102
{ACAD_REACTORS
330
C
102
}
330
C
100
AcDbDictionary
281
     1
  0
ACDBDICTIONARYWDFLT
  5
E
102
{ACAD_REACTORS
330
C
102
}
330
C
100
AcDbDictionary
281
     1
  3
Normal
350
F
100
AcDbDictionaryWithDefault
340
F
  0
DICTIONARY
  5
3B
102
{ACAD_REACTORS
330
C
102
}
330
C
100
AcDbDictionary
281
     1
  3
A0
350
3C
  3
A1
350
3D
  3
A2
350
3E
  3
A3
350
3F
  3
A4
350
40
  3
A5
350
41
  3
A6
350
42
  3
A7
350
43
  3
A8
350
44
  3
A9
350
45
  3
B0
350
46
  3
B1
350
47
  3
B2
350
48
  3
B3
350
49
  3
B4
350
4A
  3
B5
350
4B
  3
B6
350
4C
  3
B7
350
4D
  3
B8
350
4E
  3
B9
350
4F
  3
C0
350
50
  3
C1
350
51
  3
C2
350
52
  3
C3
350
53
  3
C4
350
54
  3
C5
350
55
  3
C6
350
56
  3
C7
350
57
  3
C8
350
58
  3
C9
350
59
  3
D0
350
5A
  3
D1
350
5B
  3
D2
350
5C
  0
DICTIONARY
  5
7A
102
{ACAD_REACTORS
330
C
102
}
330
C
100
AcDbDictionary
281
     1
  3
Standard
350
7B
  0
DICTIONARY
  5
2A
102
{ACAD_REACTORS
330
C
102
}
330
C
100
AcDbDictionary
281
     1
  3
2dWireframe
350
2F
  3
3D Hidden
350
31
  3
3dWireframe
350
30
  3
Basic
350
32
  3
Brighten
350
36
  3
ColorChange
350
3A
  3
Conceptual
350
34
  3
Dim
350
35
  3
Facepattern
350
39
  3
Flat
350
2B
  3
FlatWithEdges
350
2C
  3
Gouraud
350
2D
  3
GouraudWithEdges
350
2E
  3
Linepattern
350
38
  3
Realistic
350
33
  3
Thicken
350
37
  0
TCOPTIONALDATA
  5
7D
102
{ACAD_REACTORS
330
7C
102
}
330
7C
100
TcOptionalData
 70
     1
 70
   128
 90
        1
  1
#$AUX@_ToolInfo Properties
 70
     8
  1
CMD_LINE@
  0
TCOPTIONALDATA
  5
80
102
{ACAD_REACTORS
330
7F
102
}
330
7F
100
TcOptionalData
 70
     1
 70
   128
 90
        1
  1
#$AUX@_ToolInfo Properties
 70
     8
  1
CMD_LINE@
  0
TCOPTIONALDATA
  5
83
102
{ACAD_REACTORS
330
82
102
}
330
82
100
TcOptionalData
 70
     1
 70
   128
 90
        1
  1
#$AUX@_ToolInfo Properties
 70
     8
  1
CMD_LINE@
  0
TCOPTIONALDATA
  5
86
102
{ACAD_REACTORS
330
85
102
}
330
85
100
TcOptionalData
 70
     1
 70
   128
 90
        1
  1
#$AUX@_ToolInfo Properties
 70
     8
  1
CMD_LINE@
  0
TCOPTIONALDATA
  5
8A
102
{ACAD_REACTORS
330
89
102
}
330
89
100
TcOptionalData
 70
     1
 70
   128
 90
        1
  1
#$AUX@_ToolInfo Properties
 70
     8
  1
CMD_CENTERPTCIRCLE@
  0
TCOPTIONALDATA
  5
8D
102
{ACAD_REACTORS
330
8C
102
}
330
8C
100
TcOptionalData
 70
     1
 70
   128
 90
        1
  1
#$AUX@_ToolInfo Properties
 70
     8
  1
CMD_CENTERPTCIRCLE@
  0
TCOPTIONALDATA
  5
90
102
{ACAD_REACTORS
330
8F
102
}
330
8F
100
TcOptionalData
 70
     1
 70
   128
 90
        1
  1
#$AUX@_ToolInfo Properties
 70
     8
  1
CMD_CENTERPTCIRCLE@
  0
TCOPTIONALDATA
  5
93
102
{ACAD_REACTORS
330
92
102
}
330
92
100
TcOptionalData
 70
     1
 70
   128
 90
        1
  1
#$AUX@_ToolInfo Properties
 70
     8
  1
CMD_CENTERPTCIRCLE@
  0
TCOPTIONALDATA
  5
96
102
{ACAD_REACTORS
330
95
102
}
330
95
100
TcOptionalData
 70
     1
 70
   128
 90
        1
  1
#$AUX@_ToolInfo Properties
 70
     8
  1
CMD_CENTERPTCIRCLE@
  0
TCOPTIONALDATA
  5
99
102
{ACAD_REACTORS
330
98
102
}
330
98
100
TcOptionalData
 70
     1
 70
   128
 90
        1
  1
#$AUX@_ToolInfo Properties
 70
     8
  1
CMD_RECTANGLE@
  0
TCOPTIONALDATA
  5
9C
102
{ACAD_REACTORS
330
9B
102
}
330
9B
100
TcOptionalData
 70
     1
 70
   128
 90
        1
  1
#$AUX@_ToolInfo Properties
 70
     8
  1
CMD_RECTANGLE@
  0
TCOPTIONALDATA
  5
9F
102
{ACAD_REACTORS
330
9E
102
}
330
9E
100
TcOptionalData
 70
     1
 70
   128
 90
        1
  1
#$AUX@_ToolInfo Properties
 70
     8
  1
CMD_LINE@
  0
TCOPTIONALDATA
  5
A2
102
{ACAD_REACTORS
330
A1
102
}
330
A1
100
TcOptionalData
 70
     1
 70
   128
 90
        1
  1
#$AUX@_ToolInfo Properties
 70
     8
  1
CMD_LINE@
  0
TCOPTIONALDATA
  5
A5
102
{ACAD_REACTORS
330
A4
102
}
330
A4
100
TcOptionalData
 70
     1
 70
   128
 90
        1
  1
#$AUX@_ToolInfo Properties
 70
     8
  1
CMD_LINE@
  0
TCOPTIONALDATA
  5
A8
102
{ACAD_REACTORS
330
A7
102
}
330
A7
100
TcOptionalData
 70
     1
 70
   128
 90
        1
  1
#$AUX@_ToolInfo Properties
 70
     8
  1
CMD_LINE@
  0
TCOPTIONALDATA
  5
AB
102
{ACAD_REACTORS
330
AA
102
}
330
AA
100
TcOptionalData
 70
     1
 70
   128
 90
        1
  1
#$AUX@_ToolInfo Properties
 70
     8
  1
CMD_RECTANGLE@
  0
TCOPTIONALDATA
  5
AE
102
{ACAD_REACTORS
330
AD
102
}
330
AD
100
TcOptionalData
 70
     1
 70
   128
 90
        1
  1
#$AUX@_ToolInfo Properties
 70
     8
  1
CMD_LINE@
  0
TCOPTIONALDATA
  5
B1
102
{ACAD_REACTORS
330
B0
102
}
330
B0
100
TcOptionalData
 70
     1
 70
   128
 90
        1
  1
#$AUX@_ToolInfo Properties
 70
     8
  1
CMD_LINE@
  0
TCOPTIONALDATA
  5
B4
102
{ACAD_REACTORS
330
B3
102
}
330
B3
100
TcOptionalData
 70
     1
 70
   128
 90
        1
  1
#$AUX@_ToolInfo Properties
 70
     8
  1
CMD_LINE@
  0
TCOPTIONALDATA
  5
B7
102
{ACAD_REACTORS
330
B6
102
}
330
B6
100
TcOptionalData
 70
     1
 70
   128
 90
        1
  1
#$AUX@_ToolInfo Properties
 70
     8
  1
CMD_LINE@
  0
TCOPTIONALDATA
  5
BA
102
{ACAD_REACTORS
330
B9
102
}
330
B9
100
TcOptionalData
 70
     1
 70
   128
 90
        1
  1
#$AUX@_ToolInfo Properties
 70
     8
  1
CMD_LINE@
  0
TCOPTIONALDATA
  5
BD
102
{ACAD_REACTORS
330
BC
102
}
330
BC
100
TcOptionalData
 70
     1
 70
   128
 90
        1
  1
#$AUX@_ToolInfo Properties
 70
     8
  1
CMD_RECTANGLE@
  0
TCOPTIONALDATA
  5
C0
102
{ACAD_REACTORS
330
BF
102
}
330
BF
100
TcOptionalData
 70
     1
 70
   128
 90
        1
  1
#$AUX@_ToolInfo Properties
 70
     8
  1
CMD_LINE@
  0
TCOPTIONALDATA
  5
C3
102
{ACAD_REACTORS
330
C2
102
}
330
C2
100
TcOptionalData
 70
     1
 70
   128
 90
        1
  1
#$AUX@_ToolInfo Properties
 70
     8
  1
CMD_LINE@
  0
TCOPTIONALDATA
  5
C6
102
{ACAD_REACTORS
330
C5
102
}
330
C5
100
TcOptionalData
 70
     1
 70
   128
 90
        1
  1
#$AUX@_ToolInfo Properties
 70
     8
  1
CMD_LINE@
  0
TCOPTIONALDATA
  5
C9
102
{ACAD_REACTORS
330
C8
102
}
330
C8
100
TcOptionalData
 70
     1
 70
   128
 90
        1
  1
#$AUX@_ToolInfo Properties
 70
     8
  1
CMD_LINE@
  0
TCOPTIONALDATA
  5
CC
102
{ACAD_REACTORS
330
CB
102
}
330
CB
100
TcOptionalData
 70
     1
 70
   128
 90
        1
  1
#$AUX@_ToolInfo Properties
 70
     8
  1
CMD_CENTERPTCIRCLE@
  0
TCOPTIONALDATA
  5
E1
102
{ACAD_REACTORS
330
E0
102
}
330
E0
100
TcOptionalData
 70
     1
 70
   128
 90
        1
  1
#$AUX@_ToolInfo Properties
 70
     8
  1
CMD_CENTERPTCIRCLE@
  0
TCOPTIONALDATA
  5
E4
102
{ACAD_REACTORS
330
E3
102
}
330
E3
100
TcOptionalData
 70
     1
 70
   128
 90
        1
  1
#$AUX@_ToolInfo Properties
 70
     8
  1
CMD_CENTERPTCIRCLE@
  0
TCOPTIONALDATA
  5
E7
102
{ACAD_REACTORS
330
E6
102
}
330
E6
100
TcOptionalData
 70
     1
 70
   128
 90
        1
  1
#$AUX@_ToolInfo Properties
 70
     8
  1
CMD_CENTERPTCIRCLE@
  0
TCOPTIONALDATA
  5
EA
102
{ACAD_REACTORS
330
E9
102
}
330
E9
100
TcOptionalData
 70
     1
 70
   128
 90
        1
  1
#$AUX@_ToolInfo Properties
 70
     8
  1
CMD_CENTERPTCIRCLE@
  0
TCOPTIONALDATA
  5
F1
102
{ACAD_REACTORS
330
F0
102
}
330
F0
100
TcOptionalData
 70
     1
 70
   128
 90
        1
  1
#$AUX@_ToolInfo Properties
 70
     8
  1
CMD_POLYLINE@
  0
TCOPTIONALDATA
  5
EF
102
{ACAD_REACTORS
330
EE
102
}
330
EE
100
TcOptionalData
 70
     1
 70
   128
 90
        1
  1
#$AUX@_ToolInfo Properties
 70
     8
  1
CMD_POLYLINE@
  0
TCOPTIONALDATA
  5
F7
102
{ACAD_REACTORS
330
F6
102
}
330
F6
100
TcOptionalData
 70
     1
 70
   128
 90
        1
  1
#$AUX@_ToolInfo Properties
 70
     8
  1
CMD_POLYLINE@
  0
TCOPTIONALDATA
  5
F5
102
{ACAD_REACTORS
330
F4
102
}
330
F4
100
TcOptionalData
 70
     1
 70
   128
 90
        1
  1
#$AUX@_ToolInfo Properties
 70
     8
  1
CMD_POLYLINE@
  0
TCOPTIONALDATA
  5
FD
102
{ACAD_REACTORS
330
FC
102
}
330
FC
100
TcOptionalData
 70
     1
 70
   128
 90
        1
  1
#$AUX@_ToolInfo Properties
 70
     8
  1
CMD_POLYLINE@
  0
TCOPTIONALDATA
  5
FB
102
{ACAD_REACTORS
330
FA
102
}
330
FA
100
TcOptionalData
 70
     1
 70
   128
 90
        1
  1
#$AUX@_ToolInfo Properties
 70
     8
  1
CMD_POLYLINE@
  0
TCOPTIONALDATA
  5
103
102
{ACAD_REACTORS
330
102
102
}
330
102
100
TcOptionalData
 70
     1
 70
   128
 90
        1
  1
#$AUX@_ToolInfo Properties
 70
     8
  1
CMD_POLYLINE@
  0
TCOPTIONALDATA
  5
101
102
{ACAD_REACTORS
330
100
102
}
330
100
100
TcOptionalData
 70
     1
 70
   128
 90
        1
  1
#$AUX@_ToolInfo Properties
 70
     8
  1
CMD_POLYLINE@
  0
TCOPTIONALDATA
  5
109
102
{ACAD_REACTORS
330
108
102
}
330
108
100
TcOptionalData
 70
     1
 70
   128
 90
        1
  1
#$AUX@_ToolInfo Properties
 70
     8
  1
CMD_POLYLINE@
  0
TCOPTIONALDATA
  5
107
102
{ACAD_REACTORS
330
106
102
}
330
106
100
TcOptionalData
 70
     1
 70
   128
 90
        1
  1
#$AUX@_ToolInfo Properties
 70
     8
  1
CMD_POLYLINE@
  0
TCOPTIONALDATA
  5
10D
102
{ACAD_REACTORS
330
10C
102
}
330
10C
100
TcOptionalData
 70
     1
 70
   128
 90
        1
  1
#$AUX@_ToolInfo Properties
 70
     8
  1
CMD_LINE@
  0
TCOPTIONALDATA
  5
110
102
{ACAD_REACTORS
330
10F
102
}
330
10F
100
TcOptionalData
 70
     1
 70
   128
 90
        1
  1
#$AUX@_ToolInfo Properties
 70
     8
  1
CMD_LINE@
  0
TCOPTIONALDATA
  5
113
102
{ACAD_REACTORS
330
112
102
}
330
112
100
TcOptionalData
 70
     1
 70
   128
 90
        1
  1
#$AUX@_ToolInfo Properties
 70
     8
  1
CMD_LINE@
  0
TCOPTIONALDATA
  5
116
102
{ACAD_REACTORS
330
115
102
}
330
115
100
TcOptionalData
 70
     1
 70
   128
 90
        1
  1
#$AUX@_ToolInfo Properties
 70
     8
  1
CMD_LINE@
  0
TCOPTIONALDATA
  5
119
102
{ACAD_REACTORS
330
118
102
}
330
118
100
TcOptionalData
 70
     1
 70
   128
 90
        1
  1
#$AUX@_ToolInfo Properties
 70
     8
  1
CMD_LINE@
  0
TCOPTIONALDATA
  5
11C
102
{ACAD_REACTORS
330
11B
102
}
330
11B
100
TcOptionalData
 70
     1
 70
   128
 90
        1
  1
#$AUX@_ToolInfo Properties
 70
     8
  1
CMD_LINE@
  0
TCOPTIONALDATA
  5
11F
102
{ACAD_REACTORS
330
11E
102
}
330
11E
100
TcOptionalData
 70
     1
 70
   128
 90
        1
  1
#$AUX@_ToolInfo Properties
 70
     8
  1
CMD_LINE@
  0
TCOPTIONALDATA
  5
122
102
{ACAD_REACTORS
330
121
102
}
330
121
100
TcOptionalData
 70
     1
 70
   128
 90
        1
  1
#$AUX@_ToolInfo Properties
 70
     8
  1
CMD_LINE@
  0
TCOPTIONALDATA
  5
125
102
{ACAD_REACTORS
330
124
102
}
330
124
100
TcOptionalData
 70
     1
 70
   128
 90
        1
  1
#$AUX@_ToolInfo Properties
 70
     8
  1
CMD_LINE@
  0
TCOPTIONALDATA
  5
128
102
{ACAD_REACTORS
330
127
102
}
330
127
100
TcOptionalData
 70
     1
 70
   128
 90
        1
  1
#$AUX@_ToolInfo Properties
 70
     8
  1
CMD_LINE@
  0
TCOPTIONALDATA
  5
12B
102
{ACAD_REACTORS
330
12A
102
}
330
12A
100
TcOptionalData
 70
     1
 70
   128
 90
        1
  1
#$AUX@_ToolInfo Properties
 70
     8
  1
CMD_LINE@
  0
TCOPTIONALDATA
  5
12E
102
{ACAD_REACTORS
330
12D
102
}
330
12D
100
TcOptionalData
 70
     1
 70
   128
 90
        1
  1
#$AUX@_ToolInfo Properties
 70
     8
  1
CMD_LINE@
  0
TCOPTIONALDATA
  5
131
102
{ACAD_REACTORS
330
130
102
}
330
130
100
TcOptionalData
 70
     1
 70
   128
 90
        1
  1
#$AUX@_ToolInfo Properties
 70
     8
  1
CMD_LINE@
  0
TCOPTIONALDATA
  5
134
102
{ACAD_REACTORS
330
133
102
}
330
133
100
TcOptionalData
 70
     1
 70
   128
 90
        1
  1
#$AUX@_ToolInfo Properties
 70
     8
  1
CMD_LINE@
  0
TCOPTIONALDATA
  5
137
102
{ACAD_REACTORS
330
136
102
}
330
136
100
TcOptionalData
 70
     1
 70
   128
 90
        1
  1
#$AUX@_ToolInfo Properties
 70
     8
  1
CMD_LINE@
  0
TCOPTIONALDATA
  5
13A
102
{ACAD_REACTORS
330
139
102
}
330
139
100
TcOptionalData
 70
     1
 70
   128
 90
        1
  1
#$AUX@_ToolInfo Properties
 70
     8
  1
CMD_LINE@
  0
TCOPTIONALDATA
  5
13D
102
{ACAD_REACTORS
330
13C
102
}
330
13C
100
TcOptionalData
 70
     1
 70
   128
 90
        1
  1
#$AUX@_ToolInfo Properties
 70
     8
  1
CMD_LINE@
  0
TCOPTIONALDATA
  5
140
102
{ACAD_REACTORS
330
13F
102
}
330
13F
100
TcOptionalData
 70
     1
 70
   128
 90
        1
  1
#$AUX@_ToolInfo Properties
 70
     8
  1
CMD_LINE@
  0
TCOPTIONALDATA
  5
143
102
{ACAD_REACTORS
330
142
102
}
330
142
100
TcOptionalData
 70
     1
 70
   128
 90
        1
  1
#$AUX@_ToolInfo Properties
 70
     8
  1
CMD_LINE@
  0
TCOPTIONALDATA
  5
146
102
{ACAD_REACTORS
330
145
102
}
330
145
100
TcOptionalData
 70
     1
 70
   128
 90
        1
  1
#$AUX@_ToolInfo Properties
 70
     8
  1
CMD_CENTERPTCIRCLE@
  0
TCOPTIONALDATA
  5
149
102
{ACAD_REACTORS
330
148
102
}
330
148
100
TcOptionalData
 70
     1
 70
   128
 90
        1
  1
#$AUX@_ToolInfo Properties
 70
     8
  1
CMD_CENTERPTCIRCLE@
  0
TCOPTIONALDATA
  5
14C
102
{ACAD_REACTORS
330
14B
102
}
330
14B
100
TcOptionalData
 70
     1
 70
   128
 90
        1
  1
#$AUX@_ToolInfo Properties
 70
     8
  1
CMD_LINE@
  0
TCOPTIONALDATA
  5
14F
102
{ACAD_REACTORS
330
14E
102
}
330
14E
100
TcOptionalData
 70
     1
 70
   128
 90
        1
  1
#$AUX@_ToolInfo Properties
 70
     8
  1
CMD_LINE@
  0
TCOPTIONALDATA
  5
152
102
{ACAD_REACTORS
330
151
102
}
330
151
100
TcOptionalData
 70
     1
 70
   128
 90
        1
  1
#$AUX@_ToolInfo Properties
 70
     8
  1
CMD_LINE@
  0
TCOPTIONALDATA
  5
155
102
{ACAD_REACTORS
330
154
102
}
330
154
100
TcOptionalData
 70
     1
 70
   128
 90
        1
  1
#$AUX@_ToolInfo Properties
 70
     8
  1
CMD_LINE@
  0
TCOPTIONALDATA
  5
159
102
{ACAD_REACTORS
330
158
102
}
330
158
100
TcOptionalData
 70
     1
 70
   128
 90
        1
  1
#$AUX@_ToolInfo Properties
 70
     8
  1
CMD_CENTERPTCIRCLE@
  0
TCOPTIONALDATA
  5
15C
102
{ACAD_REACTORS
330
15B
102
}
330
15B
100
TcOptionalData
 70
     1
 70
   128
 90
        1
  1
#$AUX@_ToolInfo Properties
 70
     8
  1
CMD_CENTERPTCIRCLE@
  0
TCOPTIONALDATA
  5
15F
102
{ACAD_REACTORS
330
15E
102
}
330
15E
100
TcOptionalData
 70
     1
 70
   128
 90
        1
  1
#$AUX@_ToolInfo Properties
 70
     8
  1
CMD_CENTERPTCIRCLE@
  0
TCOPTIONALDATA
  5
162
102
{ACAD_REACTORS
330
161
102
}
330
161
100
TcOptionalData
 70
     1
 70
   128
 90
        1
  1
#$AUX@_ToolInfo Properties
 70
     8
  1
CMD_CENTERPTCIRCLE@
  0
TCOPTIONALDATA
  5
165
102
{ACAD_REACTORS
330
164
102
}
330
164
100
TcOptionalData
 70
     1
 70
   128
 90
        1
  1
#$AUX@_ToolInfo Properties
 70
     8
  1
CMD_CENTERPTCIRCLE@
  0
TCOPTIONALDATA
  5
168
102
{ACAD_REACTORS
330
167
102
}
330
167
100
TcOptionalData
 70
     1
 70
   128
 90
        1
  1
#$AUX@_ToolInfo Properties
 70
     8
  1
CMD_CENTERPTCIRCLE@
  0
TCOPTIONALDATA
  5
16B
102
{ACAD_REACTORS
330
16A
102
}
330
16A
100
TcOptionalData
 70
     1
 70
   128
 90
        1
  1
#$AUX@_ToolInfo Properties
 70
     8
  1
CMD_CENTERPTCIRCLE@
  0
TCOPTIONALDATA
  5
16E
102
{ACAD_REACTORS
330
16D
102
}
330
16D
100
TcOptionalData
 70
     1
 70
   128
 90
        1
  1
#$AUX@_ToolInfo Properties
 70
     8
  1
CMD_CENTERPTCIRCLE@
  0
TCOPTIONALDATA
  5
171
102
{ACAD_REACTORS
330
170
102
}
330
170
100
TcOptionalData
 70
     1
 70
   128
 90
        1
  1
#$AUX@_ToolInfo Properties
 70
     8
  1
CMD_CENTERPTCIRCLE@
  0
TCOPTIONALDATA
  5
174
102
{ACAD_REACTORS
330
173
102
}
330
173
100
TcOptionalData
 70
     1
 70
   128
 90
        1
  1
#$AUX@_ToolInfo Properties
 70
     8
  1
CMD_CENTERPTCIRCLE@
  0
TCOPTIONALDATA
  5
177
102
{ACAD_REACTORS
330
176
102
}
330
176
100
TcOptionalData
 70
     1
 70
   128
 90
        1
  1
#$AUX@_ToolInfo Properties
 70
     8
  1
CMD_CENTERPTCIRCLE@
  0
TCOPTIONALDATA
  5
17B
102
{ACAD_REACTORS
330
17A
102
}
330
17A
100
TcOptionalData
 70
     1
 70
   128
 90
        1
  1
#$AUX@_ToolInfo Properties
 70
     8
  1
CMD_CENTERPTCIRCLE@
  0
TCOPTIONALDATA
  5
17E
102
{ACAD_REACTORS
330
17D
102
}
330
17D
100
TcOptionalData
 70
     1
 70
   128
 90
        1
  1
#$AUX@_ToolInfo Properties
 70
     8
  1
CMD_CENTERPTCIRCLE@
  0
TCOPTIONALDATA
  5
181
102
{ACAD_REACTORS
330
180
102
}
330
180
100
TcOptionalData
 70
     1
 70
   128
 90
        1
  1
#$AUX@_ToolInfo Properties
 70
     8
  1
CMD_CENTERPTCIRCLE@
  0
TCOPTIONALDATA
  5
184
102
{ACAD_REACTORS
330
183
102
}
330
183
100
TcOptionalData
 70
     1
 70
   128
 90
        1
  1
#$AUX@_ToolInfo Properties
 70
     8
  1
CMD_CENTERPTCIRCLE@
  0
TCOPTIONALDATA
  5
187
102
{ACAD_REACTORS
330
186
102
}
330
186
100
TcOptionalData
 70
     1
 70
   128
 90
        1
  1
#$AUX@_ToolInfo Properties
 70
     8
  1
CMD_CENTERPTCIRCLE@
  0
TCOPTIONALDATA
  5
18A
102
{ACAD_REACTORS
330
189
102
}
330
189
100
TcOptionalData
 70
     1
 70
   128
 90
        1
  1
#$AUX@_ToolInfo Properties
 70
     8
  1
CMD_CENTERPTCIRCLE@
  0
TCOPTIONALDATA
  5
18D
102
{ACAD_REACTORS
330
18C
102
}
330
18C
100
TcOptionalData
 70
     1
 70
   128
 90
        1
  1
#$AUX@_ToolInfo Properties
 70
     8
  1
CMD_CENTERPTCIRCLE@
  0
TCOPTIONALDATA
  5
190
102
{ACAD_REACTORS
330
18F
102
}
330
18F
100
TcOptionalData
 70
     1
 70
   128
 90
        1
  1
#$AUX@_ToolInfo Properties
 70
     8
  1
CMD_CENTERPTCIRCLE@
  0
TCOPTIONALDATA
  5
194
102
{ACAD_REACTORS
330
193
102
}
330
193
100
TcOptionalData
 70
     1
 70
   128
 90
        1
  1
#$AUX@_ToolInfo Properties
 70
     8
  1
CMD_POLYLINE@
  0
TCOPTIONALDATA
  5
197
102
{ACAD_REACTORS
330
196
102
}
330
196
100
TcOptionalData
 70
     1
 70
   128
 90
        1
  1
#$AUX@_ToolInfo Properties
 70
     8
  1
CMD_LINE@
  0
TCOPTIONALDATA
  5
19A
102
{ACAD_REACTORS
330
199
102
}
330
199
100
TcOptionalData
 70
     1
 70
   128
 90
        1
  1
#$AUX@_ToolInfo Properties
 70
     8
  1
CMD_LINE@
  0
TCOPTIONALDATA
  5
19D
102
{ACAD_REACTORS
330
19C
102
}
330
19C
100
TcOptionalData
 70
     1
 70
   128
 90
        1
  1
#$AUX@_ToolInfo Properties
 70
     8
  1
CMD_LINE@
  0
TCOPTIONALDATA
  5
1A0
102
{ACAD_REACTORS
330
19F
102
}
330
19F
100
TcOptionalData
 70
     1
 70
   128
 90
        1
  1
#$AUX@_ToolInfo Properties
 70
     8
  1
CMD_LINE@
  0
TCOPTIONALDATA
  5
1A3
102
{ACAD_REACTORS
330
1A2
102
}
330
1A2
100
TcOptionalData
 70
     1
 70
   128
 90
        1
  1
#$AUX@_ToolInfo Properties
 70
     8
  1
CMD_LINE@
  0
TCOPTIONALDATA
  5
1A6
102
{ACAD_REACTORS
330
1A5
102
}
330
1A5
100
TcOptionalData
 70
     1
 70
   128
 90
        1
  1
#$AUX@_ToolInfo Properties
 70
     8
  1
CMD_LINE@
  0
TCOPTIONALDATA
  5
1A9
102
{ACAD_REACTORS
330
1A8
102
}
330
1A8
100
TcOptionalData
 70
     1
 70
   128
 90
        1
  1
#$AUX@_ToolInfo Properties
 70
     8
  1
CMD_LINE@
  0
TCOPTIONALDATA
  5
1AC
102
{ACAD_REACTORS
330
1AB
102
}
330
1AB
100
TcOptionalData
 70
     1
 70
   128
 90
        1
  1
#$AUX@_ToolInfo Properties
 70
     8
  1
CMD_STRINGDIM@
  0
TCOPTIONALDATA
  5
1AF
102
{ACAD_REACTORS
330
1AE
102
}
330
1AE
100
TcOptionalData
 70
     1
 70
     3
  1
A
 10
-71.43320524471079
 20
81.5
 30
0.0
  0
TCOPTIONALDATA
  5
1B2
102
{ACAD_REACTORS
330
1B1
102
}
330
1B1
100
TcOptionalData
 70
     1
 70
   128
 90
        1
  1
#$AUX@_ToolInfo Properties
 70
     8
  1
CMD_LINE@
  0
TCOPTIONALDATA
  5
1B5
102
{ACAD_REACTORS
330
1B4
102
}
330
1B4
100
TcOptionalData
 70
     1
 70
   128
 90
        1
  1
#$AUX@_ToolInfo Properties
 70
     8
  1
CMD_STRINGDIM@
  0
TCOPTIONALDATA
  5
1B8
102
{ACAD_REACTORS
330
1B7
102
}
330
1B7
100
TcOptionalData
 70
     1
 70
     3
  1
A
 10
31.9889998571452
 20
90.5
 30
0.0
  0
TCOPTIONALDATA
  5
1BB
102
{ACAD_REACTORS
330
1BA
102
}
330
1BA
100
TcOptionalData
 70
     1
 70
   128
 90
        1
  1
#$AUX@_ToolInfo Properties
 70
     8
  1
CMD_LINE@
  0
TCOPTIONALDATA
  5
1BE
102
{ACAD_REACTORS
330
1BD
102
}
330
1BD
100
TcOptionalData
 70
     1
 70
   128
 90
        1
  1
#$AUX@_ToolInfo Properties
 70
     8
  1
CMD_STRINGDIM@
  0
TCOPTIONALDATA
  5
1C1
102
{ACAD_REACTORS
330
1C0
102
}
330
1C0
100
TcOptionalData
 70
     1
 70
     3
  1
B
 10
-75.43320524471079
 20
-80.0
 30
0.0
  0
TCOPTIONALDATA
  5
1C4
102
{ACAD_REACTORS
330
1C3
102
}
330
1C3
100
TcOptionalData
 70
     1
 70
   128
 90
        1
  1
#$AUX@_ToolInfo Properties
 70
     8
  1
CMD_LINE@
  0
TCOPTIONALDATA
  5
1C7
102
{ACAD_REACTORS
330
1C6
102
}
330
1C6
100
TcOptionalData
 70
     1
 70
   128
 90
        1
  1
#$AUX@_ToolInfo Properties
 70
     8
  1
CMD_STRINGDIM@
  0
TCOPTIONALDATA
  5
1CA
102
{ACAD_REACTORS
330
1C9
102
}
330
1C9
100
TcOptionalData
 70
     1
 70
     3
  1
B
 10
34.56679475528921
 20
-80.0
 30
0.0
  0
TCOPTIONALDATA
  5
1CD
102
{ACAD_REACTORS
330
1CC
102
}
330
1CC
100
TcOptionalData
 70
     1
 70
   128
 90
        1
  1
#$AUX@_ToolInfo Properties
 70
     8
  1
CMD_LINE@
  0
TCOPTIONALDATA
  5
1D0
102
{ACAD_REACTORS
330
1CF
102
}
330
1CF
100
TcOptionalData
 70
     1
 70
   144
 90
        1
  1
#$AUX@_ToolInfo Properties
 70
     8
  1
CMD_TEXT@
  1
Times New Roman
 70
     0
  0
TCOPTIONALDATA
  5
1D3
102
{ACAD_REACTORS
330
1D2
102
}
330
1D2
100
TcOptionalData
 70
     1
 70
   144
 90
        1
  1
#$AUX@_ToolInfo Properties
 70
     8
  1
CMD_TEXT@
  1
Times New Roman
 70
     0
  0
TCOPTIONALDATA
  5
1D6
102
{ACAD_REACTORS
330
1D5
102
}
330
1D5
100
TcOptionalData
 70
     1
 70
   144
 90
        1
  1
#$AUX@_ToolInfo Properties
 70
     8
  1
CMD_TEXT@
  1
Times New Roman
 70
     0
  0
TCOPTIONALDATA
  5
1D9
102
{ACAD_REACTORS
330
1D8
102
}
330
1D8
100
TcOptionalData
 70
     1
 70
   128
 90
        1
  1
#$AUX@_ToolInfo Properties
 70
     8
  1
CMD_RECTANGLE@
  0
TCOPTIONALDATA
  5
1DC
102
{ACAD_REACTORS
330
1DB
102
}
330
1DB
100
TcOptionalData
 70
     1
 70
   144
 90
        1
  1
#$AUX@_ToolInfo Properties
 70
     8
  1
CMD_TEXT@
  1
Times New Roman
 70
     0
  0
TCOPTIONALDATA
  5
1DF
102
{ACAD_REACTORS
330
1DE
102
}
330
1DE
100
TcOptionalData
 70
     1
 70
   144
 90
        1
  1
#$AUX@_ToolInfo Properties
 70
     8
  1
CMD_TEXT@
  1
Times New Roman
 70
     0
  0
TCOPTIONALDATA
  5
1E2
102
{ACAD_REACTORS
330
1E1
102
}
330
1E1
100
TcOptionalData
 70
     1
 70
   144
 90
        1
  1
#$AUX@_ToolInfo Properties
 70
     8
  1
CMD_TEXT@
  1
Times New Roman
 70
     0
  0
TCOPTIONALDATA
  5
1E5
102
{ACAD_REACTORS
330
1E4
102
}
330
1E4
100
TcOptionalData
 70
     1
 70
   128
 90
        1
  1
#$AUX@_ToolInfo Properties
 70
     8
  1
CMD_CONSTRUCTLINEH@
  0
LAYOUT
  5
22
102
{ACAD_REACTORS
330
1A
102
}
330
1A
100
AcDbPlotSettings
  1

  2
none_device
  4
ISO_A4_(210.00_x_297.00_MM)
  6

 40
7.5
 41
20.0
 42
7.5
 43
20.0
 44
210.0
 45
297.0
 46
121.0092345452795
 47
118.6932331777743
 48
0.0
 49
0.0
140
0.0
141
0.0
142
1.0
143
0.5821634423539347
 70
  1712
 72
     1
 73
     0
 74
     0
  7

 75
     0
 76
     0
 77
     2
 78
   300
147
1.717730670199032
148
0.0
149
0.0
100
AcDbLayout
  1
Model
 70
     1
 71
     0
 10
-128.5092345452795
 20
-138.6932331777743
 11
81.49076545472047
 21
158.3067668222257
 12
0.0
 22
0.0
 32
0.0
 14
-113.5092345452795
 24
-117.6932331777742
 34
0.0
 15
66.49076545472047
 25
137.3067668222257
 35
0.0
146
0.0
 13
0.0
 23
0.0
 33
0.0
 16
1.0
 26
0.0
 36
0.0
 17
0.0
 27
1.0
 37
0.0
 76
     0
330
1F
331
29
  0
LAYOUT
  5
1E
102
{ACAD_REACTORS
330
1A
102
}
330
1A
100
AcDbPlotSettings
  1

  2
none_device
  4
ISO_B5_(182.00_x_237.00_MM)
  6

 40
7.5
 41
20.0
 42
7.5
 43
20.0
 44
182.0
 45
237.0
 46
-7.5
 47
-20.0
 48
0.0
 49
0.0
140
0.0
141
0.0
142
1.0
143
1.0
 70
   688
 72
     1
 73
     0
 74
     5
  7

 75
    16
 76
     0
 77
     2
 78
   300
147
1.0
148
0.0
149
0.0
100
AcDbLayout
  1
Papier 1
 70
     1
 71
     1
 10
0.0
 20
0.0
 11
182.0
 21
237.0
 12
0.0
 22
0.0
 32
0.0
 14
0.0
 24
0.0
 34
0.0
 15
182.0
 25
237.0
 35
0.0
146
0.0
 13
0.0
 23
0.0
 33
0.0
 16
1.0
 26
0.0
 36
0.0
 17
0.0
 27
1.0
 37
0.0
 76
     0
330
1B
331
1E7
  0
MLINESTYLE
  5
18
102
{ACAD_REACTORS
330
17
102
}
330
17
100
AcDbMlineStyle
  2
Standard
 70
     0
  3

 62
   256
 51
90.0
 52
90.0
 71
     9
 49
0.5
 62
   256
  6
BYLAYER
 49
-0.5
 62
   256
  6
BYLAYER
 49
0.5
 62
   256
  6
BYLAYER
 49
-0.5
 62
   256
  6
BYLAYER
 49
0.5
 62
   256
  6
BYLAYER
 49
-0.5
 62
   256
  6
BYLAYER
 49
5.0
 62
     7
  6
BYLAYER
 49
0.0
 62
     7
  6
BYLAYER
 49
-5.0
 62
     7
  6
BYLAYER
  0
ACDBPLACEHOLDER
  5
F
102
{ACAD_REACTORS
330
E
102
}
330
E
  0
SCALE
  5
3C
102
{ACAD_REACTORS
330
3B
102
}
330
3B
100
AcDbScale
 70
     0
300
1:1
140
1.0
141
1.0
290
     1
  0
SCALE
  5
3D
102
{ACAD_REACTORS
330
3B
102
}
330
3B
100
AcDbScale
 70
     0
300
1:2
140
1.0
141
2.0
290
     0
  0
SCALE
  5
3E
102
{ACAD_REACTORS
330
3B
102
}
330
3B
100
AcDbScale
 70
     0
300
1:4
140
1.0
141
4.0
290
     0
  0
SCALE
  5
3F
102
{ACAD_REACTORS
330
3B
102
}
330
3B
100
AcDbScale
 70
     0
300
1:5
140
1.0
141
5.0
290
     0
  0
SCALE
  5
40
102
{ACAD_REACTORS
330
3B
102
}
330
3B
100
AcDbScale
 70
     0
300
1:8
140
1.0
141
8.0
290
     0
  0
SCALE
  5
41
102
{ACAD_REACTORS
330
3B
102
}
330
3B
100
AcDbScale
 70
     0
300
1:10
140
1.0
141
10.0
290
     0
  0
SCALE
  5
42
102
{ACAD_REACTORS
330
3B
102
}
330
3B
100
AcDbScale
 70
     0
300
1:16
140
1.0
141
16.0
290
     0
  0
SCALE
  5
43
102
{ACAD_REACTORS
330
3B
102
}
330
3B
100
AcDbScale
 70
     0
300
1:20
140
1.0
141
20.0
290
     0
  0
SCALE
  5
44
102
{ACAD_REACTORS
330
3B
102
}
330
3B
100
AcDbScale
 70
     0
300
1:30
140
1.0
141
30.0
290
     0
  0
SCALE
  5
45
102
{ACAD_REACTORS
330
3B
102
}
330
3B
100
AcDbScale
 70
     0
300
1:40
140
1.0
141
40.0
290
     0
  0
SCALE
  5
46
102
{ACAD_REACTORS
330
3B
102
}
330
3B
100
AcDbScale
 70
     0
300
1:50
140
1.0
141
50.0
290
     0
  0
SCALE
  5
47
102
{ACAD_REACTORS
330
3B
102
}
330
3B
100
AcDbScale
 70
     0
300
1:100
140
1.0
141
100.0
290
     0
  0
SCALE
  5
48
102
{ACAD_REACTORS
330
3B
102
}
330
3B
100
AcDbScale
 70
     0
300
2:1
140
2.0
141
1.0
290
     0
  0
SCALE
  5
49
102
{ACAD_REACTORS
330
3B
102
}
330
3B
100
AcDbScale
 70
     0
300
4:1
140
4.0
141
1.0
290
     0
  0
SCALE
  5
4A
102
{ACAD_REACTORS
330
3B
102
}
330
3B
100
AcDbScale
 70
     0
300
8:1
140
8.0
141
1.0
290
     0
  0
SCALE
  5
4B
102
{ACAD_REACTORS
330
3B
102
}
330
3B
100
AcDbScale
 70
     0
300
10:1
140
10.0
141
1.0
290
     0
  0
SCALE
  5
4C
102
{ACAD_REACTORS
330
3B
102
}
330
3B
100
AcDbScale
 70
     0
300
100:1
140
100.0
141
1.0
290
     0
  0
SCALE
  5
4D
102
{ACAD_REACTORS
330
3B
102
}
330
3B
100
AcDbScale
 70
     0
300
1/128" = 1'-0"
140
0.0078125
141
12.0
290
     0
  0
SCALE
  5
4E
102
{ACAD_REACTORS
330
3B
102
}
330
3B
100
AcDbScale
 70
     0
300
1/64" = 1'-0"
140
0.015625
141
12.0
290
     0
  0
SCALE
  5
4F
102
{ACAD_REACTORS
330
3B
102
}
330
3B
100
AcDbScale
 70
     0
300
1/32" = 1'-0"
140
0.03125
141
12.0
290
     0
  0
SCALE
  5
50
102
{ACAD_REACTORS
330
3B
102
}
330
3B
100
AcDbScale
 70
     0
300
1/16" = 1'-0"
140
0.0625
141
12.0
290
     0
  0
SCALE
  5
51
102
{ACAD_REACTORS
330
3B
102
}
330
3B
100
AcDbScale
 70
     0
300
3/32" = 1'-0"
140
0.09375
141
12.0
290
     0
  0
SCALE
  5
52
102
{ACAD_REACTORS
330
3B
102
}
330
3B
100
AcDbScale
 70
     0
300
1/8" = 1'-0"
140
0.125
141
12.0
290
     0
  0
SCALE
  5
53
102
{ACAD_REACTORS
330
3B
102
}
330
3B
100
AcDbScale
 70
     0
300
3/16" = 1'-0"
140
0.1875
141
12.0
290
     0
  0
SCALE
  5
54
102
{ACAD_REACTORS
330
3B
102
}
330
3B
100
AcDbScale
 70
     0
300
1/4" = 1'-0"
140
0.25
141
12.0
290
     0
  0
SCALE
  5
55
102
{ACAD_REACTORS
330
3B
102
}
330
3B
100
AcDbScale
 70
     0
300
3/8" = 1'-0"
140
0.375
141
12.0
290
     0
  0
SCALE
  5
56
102
{ACAD_REACTORS
330
3B
102
}
330
3B
100
AcDbScale
 70
     0
300
1/2" = 1'-0"
140
0.5
141
12.0
290
     0
  0
SCALE
  5
57
102
{ACAD_REACTORS
330
3B
102
}
330
3B
100
AcDbScale
 70
     0
300
3/4" = 1'-0"
140
0.75
141
12.0
290
     0
  0
SCALE
  5
58
102
{ACAD_REACTORS
330
3B
102
}
330
3B
100
AcDbScale
 70
     0
300
1" = 1'-0"
140
1.0
141
12.0
290
     0
  0
SCALE
  5
59
102
{ACAD_REACTORS
330
3B
102
}
330
3B
100
AcDbScale
 70
     0
300
1-1/2" = 1'-0"
140
1.5
141
12.0
290
     0
  0
SCALE
  5
5A
102
{ACAD_REACTORS
330
3B
102
}
330
3B
100
AcDbScale
 70
     0
300
3" = 1'-0"
140
3.0
141
12.0
290
     0
  0
SCALE
  5
5B
102
{ACAD_REACTORS
330
3B
102
}
330
3B
100
AcDbScale
 70
     0
300
6" = 1'-0"
140
6.0
141
12.0
290
     0
  0
SCALE
  5
5C
102
{ACAD_REACTORS
330
3B
102
}
330
3B
100
AcDbScale
 70
     0
300
1'-0" = 1'-0"
140
12.0
141
12.0
290
     0
  0
TABLESTYLE
  5
7B
102
{ACAD_REACTORS
330
7A
102
}
330
7A
100
AcDbTableStyle
  3

 70
     0
 71
     0
 40
1.0
 41
1.0
280
     0
281
     0
  7
Standard
140
3.0
170
     5
 62
     0
 63
     7
421
 16383999
283
     0
 90
      512
 91
        0
  1

274
    -2
284
     1
 64
     0
275
    -2
285
     1
 65
     0
276
    -2
286
     1
 66
     0
277
    -2
287
     1
 67
     0
278
    -2
288
     1
 68
     0
279
    -2
289
     1
 69
     0
  7
Standard
140
3.0
170
     5
 62
     0
 63
     7
421
 16383999
283
     0
 90
      512
 91
        0
  1

274
    -2
284
     1
 64
     0
275
    -2
285
     1
 65
     0
276
    -2
286
     1
 66
     0
277
    -2
287
     1
 67
     0
278
    -2
288
     1
 68
     0
279
    -2
289
     1
 69
     0
  7
Standard
140
3.0
170
     5
 62
     0
 63
     7
421
 16383999
283
     0
 90
      512
 91
        0
  1

274
    -2
284
     1
 64
     0
275
    -2
285
     1
 65
     0
276
    -2
286
     1
 66
     0
277
    -2
287
     1
 67
     0
278
    -2
288
     1
 68
     0
279
    -2
289
     1
 69
     0
  0
VISUALSTYLE
  5
2F
102
{ACAD_REACTORS
330
2A
102
}
330
2A
100
AcDbVisualStyle
  2
2dWireframe
 70
     4
 71
     0
 72
     2
 73
     0
 90
        0
 40
-0.6
 41
-30.0
 62
     5
 63
     7
421
 16777215
 74
     1
 91
        4
 64
     7
 65
   257
 75
     1
175
     1
 42
1.0
 92
        0
 66
   257
 43
1.0
 76
     1
 77
     6
 78
     2
 67
     7
 79
     5
170
     0
171
     0
290
     0
174
     0
 93
        1
 44
0.0
173
     0
291
     0
 45
0.0
  0
VISUALSTYLE
  5
31
102
{ACAD_REACTORS
330
2A
102
}
330
2A
100
AcDbVisualStyle
  2
3D Hidden
 70
     6
 71
     1
 72
     2
 73
     2
 90
        0
 40
-0.6
 41
-30.0
 62
     5
 63
     7
421
 16777215
 74
     2
 91
        2
 64
     7
 65
   257
 75
     2
175
     1
 42
40.0
 92
        0
 66
   257
 43
1.0
 76
     1
 77
     6
 78
     2
 67
     7
 79
     3
170
     0
171
     0
290
     0
174
     0
 93
        1
 44
0.0
173
     0
291
     0
 45
0.0
  0
VISUALSTYLE
  5
30
102
{ACAD_REACTORS
330
2A
102
}
330
2A
100
AcDbVisualStyle
  2
3dWireframe
 70
     5
 71
     0
 72
     2
 73
     0
 90
        0
 40
-0.6
 41
-30.0
 62
     5
 63
     7
421
 16777215
 74
     1
 91
        4
 64
     7
 65
   257
 75
     1
175
     1
 42
1.0
 92
        0
 66
   257
 43
1.0
 76
     1
 77
     6
 78
     2
 67
     7
 79
     5
170
     0
171
     0
290
     0
174
     0
 93
        1
 44
0.0
173
     0
291
     0
 45
0.0
  0
VISUALSTYLE
  5
32
102
{ACAD_REACTORS
330
2A
102
}
330
2A
100
AcDbVisualStyle
  2
Basic
 70
     7
 71
     1
 72
     0
 73
     1
 90
        0
 40
-0.6
 41
-30.0
 62
     5
 63
     7
421
 16777215
 74
     0
 91
        4
 64
     7
 65
   257
 75
     1
175
     1
 42
1.0
 92
        8
 66
     7
 43
1.0
 76
     1
 77
     6
 78
     2
 67
     7
 79
     5
170
     0
171
     0
290
     0
174
     0
 93
        1
 44
0.0
173
     0
291
     1
 45
0.0
  0
VISUALSTYLE
  5
36
102
{ACAD_REACTORS
330
2A
102
}
330
2A
100
AcDbVisualStyle
  2
Brighten
 70
    12
 71
     2
 72
     2
 73
     0
 90
        0
 40
-0.6
 41
-30.0
 62
     5
 63
     7
421
 16777215
 74
     1
 91
        4
 64
     7
 65
   257
 75
     1
175
     1
 42
1.0
 92
        8
 66
     7
 43
1.0
 76
     1
 77
     6
 78
     2
 67
     7
 79
     5
170
     0
171
     0
290
     0
174
     0
 93
        1
 44
50.0
173
     0
291
     1
 45
0.0
  0
VISUALSTYLE
  5
3A
102
{ACAD_REACTORS
330
2A
102
}
330
2A
100
AcDbVisualStyle
  2
ColorChange
 70
    16
 71
     2
 72
     2
 73
     3
 90
        0
 40
-0.6
 41
-30.0
 62
     5
 63
     8
421
  8421504
 74
     1
 91
        4
 64
     7
 65
   257
 75
     1
175
     1
 42
1.0
 92
        8
 66
     8
424
  8421504
 43
1.0
 76
     1
 77
     6
 78
     2
 67
     7
 79
     5
170
     0
171
     0
290
     0
174
     0
 93
        1
 44
0.0
173
     0
291
     1
 45
0.0
  0
VISUALSTYLE
  5
34
102
{ACAD_REACTORS
330
2A
102
}
330
2A
100
AcDbVisualStyle
  2
Conceptual
 70
     9
 71
     3
 72
     2
 73
     0
 90
        0
 40
-0.6
 41
-30.0
 62
     5
 63
     7
421
 16777215
 74
     2
 91
        2
 64
     7
 65
   257
 75
     1
175
     1
 42
40.0
 92
        8
 66
     7
 43
1.0
 76
     1
 77
     6
 78
     2
 67
     7
 79
     3
170
     0
171
     0
290
     0
174
     0
 93
        1
 44
0.0
173
     0
291
     0
 45
0.0
  0
VISUALSTYLE
  5
35
102
{ACAD_REACTORS
330
2A
102
}
330
2A
100
AcDbVisualStyle
  2
Dim
 70
    11
 71
     2
 72
     2
 73
     0
 90
        0
 40
-0.6
 41
-30.0
 62
     5
 63
     7
421
 16777215
 74
     1
 91
        4
 64
     7
 65
   257
 75
     1
175
     1
 42
1.0
 92
        8
 66
     7
 43
1.0
 76
     1
 77
     6
 78
     2
 67
     7
 79
     5
170
     0
171
     0
290
     0
174
     0
 93
        1
 44
-50.0
173
     0
291
     1
 45
0.0
  0
VISUALSTYLE
  5
39
102
{ACAD_REACTORS
330
2A
102
}
330
2A
100
AcDbVisualStyle
  2
Facepattern
 70
    15
 71
     2
 72
     2
 73
     0
 90
        0
 40
-0.6
 41
-30.0
 62
     5
 63
     7
421
 16777215
 74
     1
 91
        4
 64
     7
 65
   257
 75
     1
175
     1
 42
1.0
 92
        8
 66
     7
 43
1.0
 76
     1
 77
     6
 78
     2
 67
     7
 79
     5
170
     0
171
     0
290
     0
174
     0
 93
        1
 44
0.0
173
     0
291
     1
 45
0.0
  0
VISUALSTYLE
  5
2B
102
{ACAD_REACTORS
330
2A
102
}
330
2A
100
AcDbVisualStyle
  2
Flat
 70
     0
 71
     2
 72
     1
 73
     1
 90
        2
 40
-0.6
 41
30.0
 62
     5
 63
     7
421
 16777215
 74
     0
 91
        4
 64
     7
 65
   257
 75
     1
175
     1
 42
1.0
 92
        8
 66
     7
 43
1.0
 76
     1
 77
     6
 78
     2
 67
     7
 79
     5
170
     0
171
     0
290
     0
174
     0
 93
       13
 44
0.0
173
     0
291
     1
 45
0.0
  0
VISUALSTYLE
  5
2C
102
{ACAD_REACTORS
330
2A
102
}
330
2A
100
AcDbVisualStyle
  2
FlatWithEdges
 70
     1
 71
     2
 72
     1
 73
     1
 90
        2
 40
-0.6
 41
30.0
 62
     5
 63
     7
421
 16777215
 74
     1
 91
        4
 64
     7
 65
   257
 75
     1
175
     1
 42
1.0
 92
        0
 66
   257
 43
1.0
 76
     1
 77
     6
 78
     2
 67
     7
 79
     5
170
     0
171
     0
290
     0
174
     0
 93
       13
 44
0.0
173
     0
291
     1
 45
0.0
  0
VISUALSTYLE
  5
2D
102
{ACAD_REACTORS
330
2A
102
}
330
2A
100
AcDbVisualStyle
  2
Gouraud
 70
     2
 71
     2
 72
     2
 73
     1
 90
        2
 40
-0.6
 41
30.0
 62
     5
 63
     7
421
 16777215
 74
     0
 91
        4
 64
     7
 65
   257
 75
     1
175
     1
 42
1.0
 92
        0
 66
     7
 43
1.0
 76
     1
 77
     6
 78
     2
 67
     7
 79
     5
170
     0
171
     0
290
     0
174
     0
 93
       13
 44
0.0
173
     0
291
     1
 45
0.0
  0
VISUALSTYLE
  5
2E
102
{ACAD_REACTORS
330
2A
102
}
330
2A
100
AcDbVisualStyle
  2
GouraudWithEdges
 70
     3
 71
     2
 72
     2
 73
     1
 90
        2
 40
-0.6
 41
30.0
 62
     5
 63
     7
421
 16777215
 74
     1
 91
        4
 64
     7
 65
   257
 75
     1
175
     1
 42
1.0
 92
        0
 66
   257
 43
1.0
 76
     1
 77
     6
 78
     2
 67
     7
 79
     5
170
     0
171
     0
290
     0
174
     0
 93
       13
 44
0.0
173
     0
291
     1
 45
0.0
  0
VISUALSTYLE
  5
38
102
{ACAD_REACTORS
330
2A
102
}
330
2A
100
AcDbVisualStyle
  2
Linepattern
 70
    14
 71
     2
 72
     2
 73
     0
 90
        0
 40
-0.6
 41
-30.0
 62
     5
 63
     7
421
 16777215
 74
     1
 91
        4
 64
     7
 65
   257
 75
     7
175
     7
 42
1.0
 92
        8
 66
     7
 43
1.0
 76
     1
 77
     6
 78
     2
 67
     7
 79
     5
170
     0
171
     0
290
     0
174
     0
 93
        1
 44
0.0
173
     0
291
     1
 45
0.0
  0
VISUALSTYLE
  5
33
102
{ACAD_REACTORS
330
2A
102
}
330
2A
100
AcDbVisualStyle
  2
Realistic
 70
     8
 71
     2
 72
     2
 73
     0
 90
        0
 40
-0.6
 41
-30.0
 62
     5
 63
     7
421
 16777215
 74
     1
 91
        0
 64
     7
 65
   257
 75
     1
175
     1
 42
1.0
 92
        8
 66
     8
424
  7895160
 43
1.0
 76
     1
 77
     6
 78
     2
 67
     7
 79
     5
170
     0
171
     0
290
     0
174
     0
 93
       13
 44
0.0
173
     0
291
     0
 45
0.0
  0
VISUALSTYLE
  5
37
102
{ACAD_REACTORS
330
2A
102
}
330
2A
100
AcDbVisualStyle
  2
Thicken
 70
    13
 71
     2
 72
     2
 73
     0
 90
        0
 40
-0.6
 41
-30.0
 62
     5
 63
     7
421
 16777215
 74
     1
 91
        4
 64
     7
 65
   257
 75
     1
175
     1
 42
1.0
 92
       12
 66
     7
 43
1.0
 76
     1
 77
     6
 78
     2
 67
     7
 79
     5
170
     0
171
     0
290
     0
174
     0
 93
        1
 44
0.0
173
     0
291
     1
 45
0.0
  0
ENDSEC
  0
SECTION
  2
THUMBNAILIMAGE
 90
    16364
310
28000000B40000005500000001000800000000000000000000000000000000000000000000000000FFFFFF000000FF0000FFFF0000FF0000FFFF0000FF000000FF00FF000000000080808000C0C0C0000000FF007F7FFF000000A5005252A50000007F003F3F7F0000004C0026264C000000260013132600003FFF007F9FFF
310
000029A5005267A500001F7F003F4F7F0000134C00262F4C000009260013172600007FFF007FBFFF000052A500527CA500003F7F003F5F7F0000264C0026394C0000132600131C260000BFFF007FDFFF00007CA5005291A500005F7F003F6F7F0000394C0026424C00001C26001321260000FFFF007FFFFF0000A5A50052A5
310
A500007F7F003F7F7F00004C4C00264C4C00002626001326260000FFBF007FFFDF0000A57C0052A59100007F5F003F7F6F00004C3900264C420000261C001326210000FF7F007FFFBF0000A5520052A57C00007F3F003F7F5F00004C2600264C39000026130013261C0000FF3F007FFF9F0000A5290052A56700007F1F003F
310
7F4F00004C1300264C2F00002609001326170000FF00007FFF7F0000A5000052A55200007F00003F7F3F00004C0000264C260000260000132613003FFF00009FFF7F0029A5000067A552001F7F00004F7F3F00134C00002F4C260009260000172613007FFF0000BFFF7F0052A500007CA552003F7F00005F7F3F00264C0000
310
394C2600132600001C261300BFFF0000DFFF7F007CA5000091A552005F7F00006F7F3F00394C0000424C26001C26000021261300FFFF0000FFFF7F00A5A50000A5A552007F7F00007F7F3F004C4C00004C4C26002626000026261300FFBF0000FFDF7F00A57C0000A59152007F5F00007F6F3F004C3900004C422600261C00
310
0026211300FF7F0000FFBF7F00A5520000A57C52007F3F00007F5F3F004C2600004C39260026130000261C1300FF3F0000FF9F7F00A5290000A56752007F1F00007F4F3F004C1300004C2F26002609000026171300FF000000FF7F7F00A5000000A55252007F0000007F3F3F004C0000004C2626002600000026131300FF00
310
3F00FF7F9F00A5002900A55267007F001F007F3F4F004C0013004C262F002600090026131700FF007F00FF7FBF00A5005200A5527C007F003F007F3F5F004C0026004C2639002600130026131C00FF00BF00FF7FDF00A5007C00A55291007F005F007F3F6F004C0039004C26420026001C0026132100FF00FF00FF7FFF00A5
310
00A500A552A5007F007F007F3F7F004C004C004C264C002600260026132600BF00FF00DF7FFF007C00A5009152A5005F007F006F3F7F0039004C0042264C001C002600211326007F00FF00BF7FFF005200A5007C52A5003F007F005F3F7F0026004C0039264C00130026001C1326003F00FF009F7FFF002900A5006752A500
310
1F007F004F3F7F0013004C002F264C000900260017132600000000002D2D2D005B5B5B0089898900B7B7B700B3B3B30007070707070707070707070707070707070707070707070707070707070707070707070707070707070707070707070707070707070707070707070707070707070707070707070707070707070707
310
07070707070707070707070707070707070707070707070707070707070707070707070707070707070707070707070707070707070707070707070707070707070707070707070707070707070707070707070707070707070707070707070707070707070707070707070707070707070707070707070707070707070707
310
07070707070707070707070707070707070707070707070707070707070707070707070707070707070707070707070707070707070707070707070707070707070707070707070707070707070707070707070707070707070707070707070707070707070707070707070707070707070707070707070707070707070707
310
07070707070707070707070707070707070707070707070707070707070707070707070707070707070707070707070707070707070707070707070707070707070707070707070707070707070707070707070707070707070707070707070707070707070707070707070707070707070707070707070707070707070707
310
07070707070707070707070707070707070707070707070707070707070707070707070707070707070707070707070707070707070707070707070707070707070707070707070707070707070707070707070707070707070707070707070707070707070707070707070707070707070707070707070707070707070707
310
07070707070707070707070707070707070707070707070707070707070707070707070707070707070707070707070707070707070707070707070707070707070707070707070707070707070707070707070707070707070707070707070707070707070707070707070707070707070707070707070707070707070707
310
07070707070707070707070707070707070707070707070707070707070707070707070707070707070707070707070707070707070707070707070707070707070707070707070707070707070707070707070707070707070707070707070707070707070707070707070707070707070707070707070707070707070707
310
07070707070707070707070707070707070707070707070707070707070707070707070707070707070707070707070707070707070707070707070707070707070707070707070707070707070707070707070707070707070707070707070707070707070707070707070707070707070707070707070707070707070707
310
07070707070707070707070707070707070707070707070707070707070707070707070707070707070707070707070707070707070707070707070707070707070707070707070707070707070707070707070707070707070707070707070707070707070707070707070707070707070707070707070707070707070707
310
07070707070707070707070707070707070707070707070707070707070707070707070707070707070707070707070707070707070707070707070707070707070707070707070707070707070707070707070707070707070707070707070707070707070707070707070707070707070707070707070707070707070707
310
07070707070707070707070707070707070707070707070707070707070707070707070707070707070707070707070707070707070707070707070707070707070707070707070707070707070707070707070707070707070707070707070707070707070707070707070707070707070707070707070707070707070707
310
07070707070707070707070707070707070707070707070707070707070707070707070707070707070707070707070707070707070707070707070707070707070707070707070707070707070707070707070707070707070707070707070707070707070707070707070707070707070707070707070707070707070707
310
07070707070707070707070707070707070707070707070707070707070707070707070707070707070707070707070707070707070707070707070707070707070707070707070707070707070707070707070707070707070707070707070707070707070707070707070707070707070707070707070707070707070707
310
07070707070707070707070707070707070707070707070707070707070707070707070707070707070707070707070707070707070707070707070707070707070707070707070707070707070707070707070707070707070707070707070707070707070707070707070707070707070707070707070707070707070707
310
07070707070707070707070707070707070707070707070707070707070707070707070707070707070707070707070707070707070707070707070707070707070707070707070707070707070707070707070707070707070707070707070707070707070707070707070707070707070707070707070707070707070707
310
07070707070707070707070707070707070707070707070707070707070707070707070707070707070707070707070707070707070707070707070707070707070707070707070707070707070707070707070707070707070707070707070707070707070707070707070707070707070707070707070707070707070707
310
07070707070707070707070707070707070707070707070707070707070707070707070707070707070707070707070707070707070707070707070707070707070707070707070707070707070707070707070707070707070707070707070707070707070707070707070707070707070707070707070707070707070707
310
07070707070707070707070707070707070707070707070707070707070707070707070707070707070707070707070707070707070707070707070707070707070707070707070707070707070707070707070707070707070707070707070707070707070707070707070707070707070707070707070707070707070707
310
07070707070707070707070707070707070707070707070707070707070707070707070707070707070707070707070707070707070707070707070707070707070707070707070707070707070707070707070707070707070707070707070707070707070707070707070707070707070707070707070707070707070707
310
07070707070707070707070707070707070707070707070707070707070707070707070707070707070707070707070707070707070707070707070707070707070707070707070707070707070707070707070707070707070707070707070707070707070707070707070707070707070707070707070707070707070707
310
07070707070707070707070707070707070707070707070707070707070707070707070707070707070707070707070707070707070707070707070707070707070707070707070707070707070707070707070707070707070707070707070707070707070707070707070707070707070707070707070707070707070707
310
07070707070707070707070707070707070707070707070707070707070707070707070707070707070707070707070707070707070707070707070707070707070707070707070707070707070707070707070707070707070707070707070707070707070707070707070707070707070707070707070707070707070707
310
07070707070707070707070707070707070707070707070707070707070707070707070707070707070707070707070707070707070707070707070707070707070707070707070707070707070707070707070707070707070707070707070707070707070707070707070707070707070707070707070707070707070707
310
07070707070707070707070707070707070707070707070707070707070707070707070707070707070707070707070707070707070707070707070707070707070707070707070707070707070707070707070707070707070707070707070707070707070707070707070707070707070707070707070707070707070707
310
07070707070707070707070707070707070707070707070707070707070707070707070707070707070707070707070707070707070707070707070707070707070707070707070707070707070707070707070707070707070707070707070707070707070707070707070707070707070707070707070707070707070707
310
07070707070707070707070707070707070707070707070707070707070707070707070707070707070707070707070707070707070707070707070707070707070707070707070707070707070707070707070707070707070707070707070707070707070707070707070707070707070707070707070707070707070707
310
07070707070707070707070707070707070707070707070707070707070707070707070707070707070707070707070707070707070707070707070707070707070707070707070707070707070707070707070707070707070707070707070707070707070707070707070707070707070707070707070707070707070707
310
07070707070707070707070707070707070707070707070707070707070707070707070707070707070707070707070707070707070707070707070707070707070707070707070707070707070707070707070707070707070707070707070707070707070707070707070707070707070707070707070707070707070707
310
07070707070707070707070707070707070707070707070707070707070707070707070707070707070707070707070707070707070707070707070707070707070707070707070707070707070707070707070707070707070707070707070707070707070707070707070707070707070707070707070707070707070707
310
07070707070707070707070707070707070707070707070707070707070707070707070707070707070707070707070707070707070707070707070707070707070707070707070707070707070707070707070707070707070707070707070707070707070707070707070707070707070707070707070707070707070707
310
07070707070707070707070707070707070707070707070707070707070707070707070707070707070707070707070707070707070707070707070707070707070707070707070707070707070707070707070707070707070707070707070707070707070707070707070707070707070707070707070707070707070707
310
07070707070707070707070707070707070707070707070707070707070707070707070707070707070707070707070707070707070707070707070707070707070707070707070707070707070707070707070707070707070707070707070707070707070707070707070707070707070707070707070707070707070707
310
07070707070707070707070707070707070707070707070707070707070707070707070707070707070707070707070707070707070707070707070707070707070707070707070707070707070707070707070707070707070707070707070707070707070707070707070707070707070707070707070707070707070707
310
07070707070707070707070707070707070707070707070707070707070707070707070707070707070707070707070707070707070707070707070707070707070707070707070707070707070707070707070707070707070707070707070707070707070707070707070707070707070707070707070707070707070707
310
07070707070707070707070707070707070707070707070707070707070707070707070707070707070707070707070707070707070707070707070707070707070707070707070707070707070707070707070707070707070707070707070707070707070707070707070707070707070707070707070707070707070707
310
07070707070707070707070707070707070707070707070707070707070707070707070707070707070707070707070707070707070707070707070707070707070707070707070707070707070707070707070707070707070707070707070707070707070707070707070707070707070707070707070707070707070707
310
07070707070707070707070707070707070707070707070707070707070707070707070707070707070707070707070707070707070707070707070707070707070707070707070707070707070707070707070707070707070707070707070707070707070707070707070707070707070707070707070707070707070707
310
07070707070707070707070707070707070707070707070707070707070707070707070707070707070707070707070707070707070707070707070707070707070707070707070707070707070707070707070707070707070707070707070707070707070707070707070707070707070707070707070707070707070707
310
07070707070707070707070707070707070707070707070707070707070707070707070707070707070707070707070707070707070707070707070707070707070707070707070707070707070707070707070707070707070707070707070707070707070707070707070707070707070707070707070707070707070707
310
07070707070707070707070707070707070707070707070707070707070707070707070707070707070707070707070707070707070707070707070707070707070707070707070707070707070707070707070707070707070707070707070707070707070707070707070707070707070707070707070707070707070707
310
07070707070707070707070707070707070707070707070707070707070707070707070707070707070707070707070707070707070707070707070707070707070707070707070707070707070707070707070707070707070707070707070707070707070707070707070707070707070707070707070707070707070707
310
07070707070707070707070707070707070707070707070707070707070707070707070707070707070707070707070707070707070707070707070707070707070707070707070707070707070707070707070707070707070707070707070707070707070707070707070707070707070707070707070707070707070707
310
07070707070707070707070707070707070707070707070707070707070707070707070707070707070707070707070707070707070707070707070707070707070707070707070707070707070707070707070707070707070707070707070707070707070707070707070707070707070707070707070707070707070707
310
07070707070707070707070707070707070707070707070707070707070707070707070707070707070707070707070707070707070707070707070707070707070707070707070707070707070707070707070707070707070707070707070707070707070707070707070707070707070707070707070707070707070707
310
07070707070707070707070707070707070707070707070707070707070707070707070707070707070707070707070707070707070707070707070707070707070707070707070707070707070707070707070707070707070707070707070707070707070707070707070707070707070707070707070707070707070707
310
07070707070707070707070707070707070707070707070707070707070707070707070707070707070707070707070707070707070707070707070707070707070707070707070707070707070707070707070707070707070707070707070707070707070707070707070707070707070707070707070707070707070707
310
07070707070707070707070707070707070707070707070707070707070707070707070707070707070707070707070707070707070707070707070707070707070707070707070707070707070707070707070707070707070707070707070707070707070707070707070707070707070707070707070707070707070707
310
07070707070707070707070707070707070707070707070707070707070707070707070707070707070707070707070707070707070707070707070707070707070707070707070707070707070707070707070707070707070707070707070707070707070707070707070707070707070707070707070707070707070707
310
07070707070707070707070707070707070707070707070707070707070707070707070707070707070707070707070707070707070707070707070707070707070707070707070707070707070707070707070707070707070707070707070707070707070707070707070707070707070707070707070707070707070707
310
07070707070707070707070707070707070707070707070707070707070707070707070707070707070707070707070707070707070707070707070707070707070707070707070707070707070707070707070707070707070707070707070707070707070707070707070707070707070707070707070707070707070707
310
07070707070707070707070707070707070707070707070707070707070707070707070707070707070707070707070707070707070707070707070707070707070707070707070707070707070707070707070707070707070707070707070707070707070707070707070707070707070707070707070707070707070707
310
07070707070707070707070707070707070707070707070707070707070707070707070707070707070707070707070707070707070707070707070707070707070707070707070707070707070707070707070707070707070707070707070707070707070707070707070707070707070707070707070707070707070707
310
07070707070707070707070707070707070707070707070707070707070707070707070707070707070707070707070707070707070707070707070707070707070707070707070707070707070707070707070707070707070707070707070707070707070707070707070707070707070707070707070707070707070707
310
07070707070707070707070707070707070707070707070707070707070707070707070707070707070707070707070707070707070707070707070707070707070707070707070707070707070707070707070707070707070707070707070707070707070707070707070707070707070707070707070707070707070707
310
07070707070707070707070707070707070707070707070707070707070707070707070707070707070707070707070707070707070707070707070707070707070707070707070707070707070707070707070707070707070707070707070707070707070707070707070707070707070707070707070707070707070707
310
07070707070707070707070707070707070707070707070707070707070707070707070707070707070707070707070707070707070707070707070707070707070707070707070707070707070707070707070707070707070707070707070707070707070707070707070707070707070707070707070707070707070707
310
07070707070707070707070707070707070707070707070707070707070707070707070707070707070707070707070707070707070707070707070707070707070707070707070707070707070707070707070707070707070707070707070707070707070707070707070707070707070707070707070707070707070707
310
07070707070707070707070707070707070707070707070707070707070707070707070707070707070707070707070707070707070707070707070707070707070707070707070707070707070707070707070707070707070707070707070707070707070707070707070707070707070707070707070707070707070707
310
07070707070707070707070707070707070707070707070707070707070707070707070707070707070707070707070707070707070707070707070707070707070707070707070707070707070707070707070707070707070707070707070707070707070707070707070707070707070707070707070707070707070707
310
07070707070707070707070707070707070707070707070707070707070707070707070707070707070707070707070707070707070707070707070707070707070707070707070707070707070707070707070707070707070707070707070707070707070707070707070707070707070707070707070707070707070707
310
07070707070707070707070707070707070707070707070707070707070707070707070707070707070707070707070707070707070707070707070707070707070707070707070707070707070707070707070707070707070707070707070707070707070707070707070707070707070707070707070707070707070707
310
07070707070707070707070707070707070707070707070707070707070707070707070707070707070707070707070707070707070707070707070707070707070707070707070707070707070707070707070707070707070707070707070707070707070707070707070707070707070707070707070707070707070707
310
07070707070707070707070707070707070707070707070707070707070707070707070707070707070707070707070707070707070707070707070707070707070707070707070707070707070707070707070707070707070707070707070707070707070707070707070707070707070707070707070707070707070707
310
07070707070707070707070707070707070707070707070707070707070707070707070707070707070707070707070707070707070707070707070707070707070707070707070707070707070707070707070707070707070707070707070707070707070707070707070707070707070707070707070707070707070707
310
07070707070707070707070707070707070707070707070707070707070707070707070707070707070707070707070707070707070707070707070707070707070707070707070707070707070707070707070707070707070707070707070707070707070707070707070707070707070707070707070707070707070707
310
07070707070707070707070707070707070707070707070707070707070707070707070707070707070707070707070707070707070707070707070707070707070707070707070707070707070707070707070707070707070707070707070707070707070707070707070707070707070707070707070707070707070707
310
07070707070707070707070707070707070707070707070707070707070707070707070707070707070707070707070707070707070707070707070707070707070707070707070707070707070707070707070707070707070707070707070707070707070707070707070707070707070707070707070707070707070707
310
07070707070707070707070707070707070707070707070707070707070707070707070707070707070707070707070707070707070707070707070707070707070707070707070707070707070707070707070707070707070707070707070707070707070707070707070707070707070707070707070707070707070707
310
07070707070707070707070707070707070707070707070707070707070707070707070707070707070707070707070707070707070707070707070707070707070707070707070707070707070707070707070707070707070707070707070707070707070707070707070707070707070707070707070707070707070707
310
07070707070707070707070707070707070707070707070707070707070707070707070707070707070707070707070707070707070707070707070707070707070707070707070707070707070707070707070707070707070707070707070707070707070707070707070707070707070707070707070707070707070707
310
07070707070707070707070707070707070707070707070707070707070707070707070707070707070707070707070707070707070707070707070707070707070707070707070707070707070707070707070707070707070707070707070707070707070707070707070707070707070707070707070707070707070707
310
07070707070707070707070707070707070707070707070707070707070707070707070707070707070707070707070707070707070707070707070707070707070707070707070707070707070707070707070707070707070707070707070707070707070707070707070707070707070707070707070707070707070707
310
07070707070707070707070707070707070707070707070707070707070707070707070707070707070707070707070707070707070707070707070707070707070707070707070707070707070707070707070707070707070707070707070707070707070707070707070707070707070707070707070707070707070707
310
07070707070707070707070707070707070707070707070707070707070707070707070707070707070707070707070707070707070707070707070707070707070707070707070707070707070707070707070707070707070707070707070707070707070707070707070707070707070707070707070707070707070707
310
07070707070707070707070707070707070707070707070707070707070707070707070707070707070707070707070707070707070707070707070707070707070707070707070707070707070707070707070707070707070707070707070707070707070707070707070707070707070707070707070707070707070707
310
07070707070707070707070707070707070707070707070707070707070707070707070707070707070707070707070707070707070707070707070707070707070707070707070707070707070707070707070707070707070707070707070707070707070707070707070707070707070707070707070707070707070707
310
07070707070707070707070707070707070707070707070707070707070707070707070707070707070707070707070707070707070707070707070707070707070707070707070707070707070707070707070707070707070707070707070707070707070707070707070707070707070707070707070707070707070707
310
07070707070707070707070707070707070707070707070707070707070707070707070707070707070707070707070707070707070707070707070707070707070707070707070707070707070707070707070707070707070707070707070707070707070707070707070707070707070707070707070707070707070707
310
07070707070707070707070707070707070707070707070707070707070707070707070707070707070707070707070707070707070707070707070707070707070707070707070707070707070707070707070707070707070707070707070707070707070707070707070707070707070707070707070707070707070707
310
07070707070707070707070707070707070707070707070707070707070707070707070707070707070707070707070707070707070707070707070707070707070707070707070707070707070707070707070707070707070707070707070707070707070707070707070707070707070707070707070707070707070707
310
07070707070707070707070707070707070707070707070707070707070707070707070707070707070707070707070707070707070707070707070707070707070707070707070707070707070707070707070707070707070707070707070707070707070707070707070707070707070707070707070707070707070707
310
07070707070707070707070707070707070707070707070707070707070707070707070707070707070707070707070707070707070707070707070707070707070707070707070707070707070707070707070707070707070707070707070707070707070707070707070707070707070707070707070707070707070707
310
07070707070707070707070707070707070707070707070707070707070707070707070707070707070707070707070707070707070707070707070707070707070707070707070707070707070707070707070707070707070707070707070707070707070707070707070707070707070707070707070707070707070707
310
07070707070707070707070707070707070707070707070707070707070707070707070707070707070707070707070707070707070707070707070707070707070707070707070707070707070707070707070707070707070707070707070707070707070707070707070707070707070707070707070707070707070707
310
07070707070707070707070707070707070707070707070707070707070707070707070707070707070707070707070707070707070707070707070707070707070707070707070707070707070707070707070707070707070707070707070707070707070707070707070707070707070707070707070707070707070707
310
07070707070707070707070707070707070707070707070707070707070707070707070707070707070707070707070707070707070707070707070707070707070707070707070707070707070707070707070707070707070707070707070707070707070707070707070707070707070707070707070707070707070707
310
07070707070707070707070707070707070707070707070707070707070707070707070707070707070707070707070707070707070707070707070707070707070707070707070707070707070707070707070707070707070707070707070707070707070707070707070707070707070707070707070707070707070707
310
07070707070707070707070707070707070707070707070707070707070707070707070707070707070707070707070707070707070707070707070707070707070707070707070707070707070707070707070707070707070707070707070707070707070707070707070707070707070707070707070707070707070707
310
07070707070707070707070707070707070707070707070707070707070707070707070707070707070707070707070707070707070707070707070707070707070707070707070707070707070707070707070707070707070707070707070707070707070707070707070707070707070707070707070707070707070707
310
07070707070707070707070707070707070707070707070707070707070707070707070707070707070707070707070707070707070707070707070707070707070707070707070707070707070707070707070707070707070707070707070707070707070707070707070707070707070707070707070707070707070707
310
07070707070707070707070707070707070707070707070707070707070707070707070707070707070707070707070707070707070707070707070707070707070707070707070707070707070707070707070707070707070707070707070707070707070707070707070707070707070707070707070707070707070707
310
07070707070707070707070707070707070707070707070707070707070707070707070707070707070707070707070707070707070707070707070707070707070707070707070707070707070707070707070707070707070707070707070707070707070707070707070707070707070707070707070707070707070707
310
07070707070707070707070707070707070707070707070707070707070707070707070707070707070707070707070707070707070707070707070707070707070707070707070707070707070707070707070707070707070707070707070707070707070707070707070707070707070707070707070707070707070707
310
07070707070707070707070707070707070707070707070707070707070707070707070707070707070707070707070707070707070707070707070707070707070707070707070707070707070707070707070707070707070707070707070707070707070707070707070707070707070707070707070707070707070707
310
07070707070707070707070707070707070707070707070707070707070707070707070707070707070707070707070707070707070707070707070707070707070707070707070707070707070707070707070707070707070707070707070707070707070707070707070707070707070707070707070707070707070707
310
07070707070707070707070707070707070707070707070707070707070707070707070707070707070707070707070707070707070707070707070707070707070707070707070707070707070707070707070707070707070707070707070707070707070707070707070707070707070707070707070707070707070707
310
07070707070707070707070707070707070707070707070707070707070707070707070707070707070707070707070707070707070707070707070707070707070707070707070707070707070707070707070707070707070707070707070707070707070707070707070707070707070707070707070707070707070707
310
07070707070707070707070707070707070707070707070707070707070707070707070707070707070707070707070707070707070707070707070707070707070707070707070707070707070707070707070707070707070707070707070707070707070707070707070707070707070707070707070707070707070707
310
07070707070707070707070707070707070707070707070707070707070707070707070707070707070707070707070707070707070707070707070707070707070707070707070707070707070707070707070707070707070707070707070707070707070707070707070707070707070707070707070707070707070707
310
07070707070707070707070707070707070707070707070707070707070707070707070707070707070707070707070707070707070707070707070707070707070707070707070707070707070707070707070707070707070707070707070707070707070707070707070707070707070707070707070707070707070707
310
07070707070707070707070707070707070707070707070707070707070707070707070707070707070707070707070707070707070707070707070707070707070707070707070707070707070707070707070707070707070707070707070707070707070707070707070707070707070707070707070707070707070707
310
07070707070707070707070707070707070707070707070707070707070707070707070707070707070707070707070707070707070707070707070707070707070707070707070707070707070707070707070707070707070707070707070707070707070707070707070707070707070707070707070707070707070707
310
07070707070707070707070707070707070707070707070707070707070707070707070707070707070707070707070707070707070707070707070707070707070707070707070707070707070707070707070707070707070707070707070707070707070707070707070707070707070707070707070707070707070707
310
07070707070707070707070707070707070707070707070707070707070707070707070707070707070707070707070707070707070707070707070707070707070707070707070707070707070707070707070707070707070707070707070707070707070707070707070707070707070707070707070707070707070707
310
07070707070707070707070707070707070707070707070707070707070707070707070707070707070707070707070707070707070707070707070707070707070707070707070707070707070707070707070707070707070707070707070707070707070707070707070707070707070707070707070707070707070707
310
07070707070707070707070707070707070707070707070707070707070707070707070707070707070707070707070707070707070707070707070707070707070707070707070707070707070707070707070707070707070707070707070707070707070707070707070707070707070707070707070707070707070707
310
07070707070707070707070707070707070707070707070707070707070707070707070707070707070707070707070707070707070707070707070707070707070707070707070707070707070707070707070707070707070707070707070707070707070707070707070707070707070707070707070707070707070707
310
07070707070707070707070707070707070707070707070707070707070707070707070707070707070707070707070707070707070707070707070707070707070707070707070707070707070707070707070707070707070707070707070707070707070707070707070707070707070707070707070707070707070707
310
07070707070707070707070707070707070707070707070707070707070707070707070707070707070707070707070707070707070707070707070707070707070707070707070707070707070707070707070707070707070707070707070707070707070707070707070707070707070707070707070707070707070707
310
07070707070707070707070707070707070707070707070707070707070707070707070707070707070707070707070707070707070707070707070707070707070707070707070707070707070707070707070707070707070707070707070707070707070707070707070707070707070707070707070707070707070707
310
07070707070707070707070707070707070707070707070707070707070707070707070707070707070707070707070707070707070707070707070707070707070707070707070707070707070707070707070707070707070707070707070707070707070707070707070707070707070707070707070707070707070707
310
07070707070707070707070707070707070707070707070707070707070707070707070707070707070707070707070707070707070707070707070707070707070707070707070707070707070707070707070707070707070707070707070707070707070707070707070707070707070707070707070707070707070707
310
07070707070707070707070707070707070707070707070707070707070707070707070707070707070707070707070707070707070707070707070707070707070707070707070707070707070707070707070707070707070707070707070707070707070707070707070707070707070707070707070707070707070707
310
07070707070707070707070707070707070707070707070707070707070707070707070707070707070707070707070707070707070707070707070707070707070707070707070707070707070707070707070707070707070707070707070707070707070707070707070707070707070707070707070707070707070707
310
07070707070707070707070707070707070707070707070707070707070707070707070707070707070707070707070707070707070707070707070707070707070707070707070707070707070707070707070707070707070707070707070707070707070707070707070707070707070707070707070707070707070707
310
07070707070707070707070707070707070707070707070707070707070707070707070707070707070707070707070707070707070707070707070707070707070707070707070707070707070707070707070707070707070707070707070707070707070707070707070707070707070707070707070707070707070707
310
07070707070707070707070707070707070707070707070707070707070707070707070707070707070707070707070707070707070707070707070707070707070707070707070707070707070707070707070707070707070707070707070707070707070707070707070707070707070707070707070707070707070707
310
07070707070707070707070707070707070707070707070707070707070707070707070707070707070707070707070707070707070707070707070707070707070707070707070707070707070707070707070707070707070707070707070707070707070707070707070707070707070707070707070707070707070707
310
07070707070707070707070707070707070707070707070707070707070707070707070707070707070707070707070707070707070707070707070707070707070707070707070707070707070707070707070707070707070707070707070707070707070707070707070707070707070707070707070707070707070707
310
07070707070707070707070707070707070707070707070707070707070707070707070707070707070707070707070707070707070707070707070707070707070707070707070707070707070707070707070707070707070707070707070707070707070707070707070707070707070707070707070707070707070707
310
070707070707070707070707070707070707070707070707070707070707070707070707070707070707070707070707070707070707070707070707070707070707070707070707070707070707070707070707070707070707070707070707070707070707070707070707
  0
ENDSEC
  0
EOF
